Tab Country Home


 :: Home > Tabs > K > Krauss, Alison > Let Me Touch You For Awhile

Alison Krauss - Let Me Touch You For Awhile


This tab has not yet been rated for accuracy.Sorry, but you must be logged in to rate this tab so we can tell which songs you've already voted on, which will help prevent cheating.
Click here to log-in, or you can click here to register.
(Registration is free)


Click here for a plain text version of this song (for better printing)

Add this tab to your list of favorite tabs




#----------------------------------PLEASE NOTE---------------------------------#
#This file is the author's own work and represents their interpretation of the #
#song. You may only use this file for private study, scholarship, or research. #
#------------------------------------------------------------------------------#


LET ME TOUCH YOU FOR AWHILE (Robert Lee Castleman)
Alison Krauss & Union Station on NEW FAVORITE (2001)

Key of G#m: capo 4, play in Em


 Em                      C
Its been a long time coming

Em                      C
As you shed a lonesome tear

 G                        C
And now you're in a wonder-ama

G                    C
I wonder what you're doing here

Em                    C
The flame no longer flickers

G                           C
You're feeling just like a fool

G                           C
You keep staring into your liqour

G                 C
Wondering what to do

  D                 C
I don't hardly know but I'd be willing to show you

D        B/D#              Em  F
I know a way to make you smile

D                       G   C  Em C
Let me touch you for a while



Em                       C
I'm gonna ruin my black mascara

Em                                        C
You're drinking whiskey when it should be wine

G                              C
You keep on looking into that mirror

Em                                   C
But to me you're looking really fine

D                       C
I don't hardly know you, but I'd be willing to show you

D        B/D#              Em           Em/D#
I know a way to make you laugh at that cowgirl

         Em/D             A/C#
As she's walking out the door

C         D               Em
I know a way to make you smile

             Em/D#                 Em/D          A/C#
Just let me whisper things you've never heard before

 C            D            F             D              G
Just let me touch you baby, just let me touch you for awhile

DOBRO
C Em C G C Em C

D                      C
I don't hardly know you, but I'd be willing to show you

D        B/D#              Em  F
I know a way to make you smile

Em                   C                            Em   C
Its been a long time baby, let me touch you for awhile

G C G


GUITAR 1 capo 4
  Em (Emsus2)                                        C (Cmaj7#11)
    ________    ________                 ________     ________    ________
   |  |  |  |  |  |  |  |   |     |     |  |  |  |   |  |  |  |  |  |  |  |
|-----------------------0|------------------------|-----------------------0|
|--------------------0---|------------------------|--------------------0---|
|-----------0-----0------|-----------------------0|-----------0------------|
|--------4-----4---------|--------------------4---|--------4--------4------|
|-----2------------------|-----------------2------|-----3--------3---------|
|--0---------------------|--------------0---------|--0---------------------|


                             ________    ________                 ________
   |     |     |     |      |  |  |  |  |  |  |  |   |     |     |  |  |  |
|------------------------|-----------------------0|------------------------|
|------------------------|------------------------|------------------------|
|------------------------|-----------0--------0---|-----------------------0|
|------------------------|--------4--------4------|--------------------4---|
|------------------------|-----2--------2---------|-----------------2------|
|------------------------|--0---------------------|--------------0---------|


    ________    ________                 ________ 
   |  |  |  |  |  |  |  |   |     |     |  |  |  |
|-----------------------0|------------------------|------------------------|
|--------------------0---|------------------------|------------------------|
|-----------0------------|-----------------------0|----------etc-----------|
|--------4--------4------|--------------------4---|------------------------|
|-----3--------3---------|-----------------3------|------------------------|
|--0---------------------|--------------0---------|------------------------|




GUITAR 2 capo 4
  Em (Em9)                                          C (Cmaj9#11)
          __    __    __                                    __    __    __
   |     |  |  |  |  |  |   |     |     |     |      |     |  |  |  |  |  |
|-----------------------0|------------------------|-----------------------0|
|-----------------3------|------------------------|-----------------3------|
|-----------0------------|------------------------|-----------0------------|
|--------4---------------|------------------------|--------4---------------|
|------------------------|------------------------|--3---------------------|
|--0---------------------|------------------------|------------------------|



   |     |     |     |
|------------------------|------------------------|------/\----------/\----|
|------------------------|------------------------|-----/--\--------/--\---|
|------------------------|----------etc-----------|----/----\------/----\--|
|------------------------|------------------------|---/------\----/------\-|
|------------------------|------------------------|--/--------\--/--------\|
|------------------------|------------------------|-/----------\/----------|




CHORD VOICINGS

  G  CaddD    Dsus2 CaddD   D    B/D#   Em  FaddG   Em   Em/D#  Em/D A/C#
|-3-----3--| |-0-----0--| |-2-----2-----0-----3--| |-0-----0------0--------|
|-3-----3--| |-3-----3--| |-3-----0-----0-----1--| |-0-----0------0----2---|
|-0-----0--| |-2-----0--| |-2-----2-----0-----0--| |-0-----0------0----2---|
|-0-----2--| |-0-----2--| |-0-----1-----2-----3--| |-2-----1------0----2---|
|-2-----3--| |-------3--| |----------------------| |-------------------4---|
|-3--------| |----------| |----------------------| |-----------------------|



Comments about this tab

No comments/corrections found. Add your own



2006 ZMG, Inc. - All Rights Reserved - Privacy Statement