Tab Country Home


 :: Home > Tabs > S > Strait, George > Write This Down

George Strait - Write This Down


This tab has been rated a 5.00 out of 5 for accuracy.
(4 votes)
Sorry, but you must be logged in to rate this tab so we can tell which songs you've already voted on, which will help prevent cheating.
Click here to log-in, or you can click here to register.
(Registration is free)


Click here for a plain text version of this song (for better printing)

Add this tab to your list of favorite tabs




#----------------------------------PLEASE NOTE---------------------------------#
#This file is the author's own work and represents their interpretation of the #
#song. You may only use this file for private study, scholarship, or research. #
#------------------------------------------------------------------------------#


WRITE THIS DOWN
George Strait
(Hunt/Robbins)
From the CD: Always Never The Same
1998 MCA Records
Submitted by: Christopher R. (May 14, 2003)
 
Capo I Fret
 
Intro
 
E----------------------------------------------------------------------------
A--------------------------------------------------------------------3-------
G------0--2/4--4--4--2p0--2/4------0--2/4--4--4--2p0----------0---2/4----2---
D--0h2------------------------0h2--------------------2----0h2----------------
A----------------------------------------------------------------------------
E----------------------------------------------------------------------------
 
E-----------------------
A-------3---------------
G--2h4----4-2p0-----0---
D---------------2p0-----
A-----------------------
E-----------------------
 
I never saw the (G) end in sight; fools are kind of (A7) blind.
Thought everything was (D) going alright, but I was running out of (G) time.
'Cause (D) you had one (G) foot out the door, I swear I didn't (A7) see
But if you're really (C) going away, (D) here's some final words from (G) me (C) (G) 
 
Baby, (D) write this (G) down, take a little note to re(A7)mind you in case you didn't know,
Tell yourself I (C) love you and I don't want you to (D) go, write this (G) down (D)
Take my (G) words, read 'em every day, keep 'em close (A) by, don't you let 'em fade away,
So you'll re(C)member what I forgot to (D) say, write this (G) down.
 
Repeat Intro
 
I'll sign it at the (G) bottom of the page, I'll swear under (A7) oath
'Cause every single (D) word is true, and I think you need to (G) know,
So (D) use it as a (G) bookmark, stick it on your (A7) 'frigerator door,
Hang it in a (C) picture frame up above the (D) mantel where you'll see it for (G) sure (C) (G)
 
Baby, (D) write this (G) down, take a little note to re(A7)mind you in case you didn't know,
Tell yourself I (C) love you and I don't want you to (D) go, write this (G) down (D)
Take my (G) words, read 'em every day, keep 'em close (A) by, don't you let 'em fade away,
So you'll re(C)member what I forgot to (D) say, write this (G) down.
 
(Bm7) You can find a chisel, (D) I can find a stone.
(C) Folks will be reading these words, (D) long (D/C) after we're (Bm) gone 
 
Baby, (D) write this (G) down, take a little note to re(A7)mind you in case you didn't know,
Tell yourself I (C) love you and I don't want you to (D) go, write this (G) down (D)
Take my (G) words, read 'em every day, keep 'em close (A) by, don't you let 'em fade away,
So you'll re(C)member what I forgot to (D) say, write this (G) down.
 
Oh I (A) love you and I don't want you to (D) go, baby write this (G) down (C) (G)
 

NOTE: this is my first attempt at this song. If the intro is wrong, please let me know.



Comments about this tab

georgestrait16 - 2005-08-12
Great tab all together maybe missing 1 or 2 notes in the into but i think this is the best out of all the versions.
georgestrait16 - 2005-08-12
on the intro way at the end i think it should look like this maybe?

e--------------------------
b------3-------------------
g-2h4----4-2p0----------0--
d--------------2-2-2p0--0--
a--------------------------
e--------------------------
xloserxinxlifex - 2005-11-05
thats a good tab, but i think this way to end it is good (opinion)

e--------------------------
b------3-------------------
g-2h4----4-2p0-------------
d--------------2-2p0-------
a--------------------------
e--------------------------
* * = slow release

Add a comment/correction



2006 ZMG, Inc. - All Rights Reserved - Privacy Statement