Tab Country Home


 :: Home > Tabs > A > Alabama > Dixieland Delight

Alabama - Dixieland Delight


This tab has not yet been rated for accuracy.Sorry, but you must be logged in to rate this tab so we can tell which songs you've already voted on, which will help prevent cheating.
Click here to log-in, or you can click here to register.
(Registration is free)


Click here for a plain text version of this song (for better printing)

Add this tab to your list of favorite tabs




#----------------------------------PLEASE NOTE---------------------------------#
#This file is the author's own work and represents their interpretation of the #
#song. You may only use this file for private study, scholarship, or research. #
#------------------------------------------------------------------------------#


Dixieland Delight
Alabama

E------------------------------------------------------------
B----------------------3++++---------------------------------
G-0++---0----2--2/4------4\2---------------------------------
D---0|2----------------------------------------------0-0|2---
A--------------------------------0|2-0-----------0-2---------
E--------------------------------------3-0--2-3--------------
                                        [                 ]
                                        play this in trioles


E-------------------10++++--------------15--17/19--19\17--15--19\17--14/15++++
B-----8-10-10/12-------12\10-----15|17----------------------------------------
G-7|9-------------------------------------------------------------------------
D-----------------------------------------------------------------------------
A-----------------------------------------------------------------------------
E-----------------------------------------------------------------------------



2/4 means: play string in 2nd and bend up to 4th fred.
4\2 means: start playing string in 2nd but bended up to 4th and release to 2nd.
0++ means: let sting sound on even if another tone is played.
0|2 means: play string empty and hammer on in 2nd.
2|0 means: play string in 2nd and pull off.



Comments about this tab

No comments/corrections found. Add your own



2006 ZMG, Inc. - All Rights Reserved - Privacy Statement