Tab Country Home


 :: Home > Tabs > C > Clark, Terri > Poor, Poor Pitiful Me

Terri Clark - Poor, Poor Pitiful Me


This tab has been rated a 4.00 out of 5 for accuracy.
(1 vote)
Sorry, but you must be logged in to rate this tab so we can tell which songs you've already voted on, which will help prevent cheating.
Click here to log-in, or you can click here to register.
(Registration is free)


Click here for a plain text version of this song (for better printing)

Add this tab to your list of favorite tabs




#----------------------------------PLEASE NOTE---------------------------------#
#This file is the author's own work and represents their interpretation of the #
#song. You may only use this file for private study, scholarship, or research. #
#------------------------------------------------------------------------------#


Song: Poor, Poor Pitiful Me
Album:  Just the Same   
Written by: Warren Zevon
Recorded by: Terri Clark

Record is in F#

Intro chords.  (C)  F C G C    F C G C 

        F      C            G      C       F              G    C
Well I lay my head on the railway track  Waitin' on the Double E
          F          C           G       C      F          G     C
But the train don't run through here no more   Poor poor pitiful me

Chorus:
F     C      G    C   F           G     C   F         C          G     C
Poor poor pitiful me, poor poor pitiful me All these boys won't let me be
F                  G               F C G C    F C G C 
Lord have mercy on me Woe, woe is me

        F     C          G    C    F            G      C
Well I met a man out at Hollywood     I ain't namin' names
        F       C        G    C      F          G     C
But he really worked me over good   Just like Jesse James
         F      C        G     C   F               G        C
Yes he really worked me over good  He was a credit to his gender
    F    C             G       C    F             G      C
Put me through some changes, Lord  Sorta like a Waring blender

go to chorus, lead, third verse     Chords to lead  F C G C  F C G C 

         F     C           G     C     F       G    C
Well, I met a boy in the Vieux-Carres Down in Yokohama
     F       C           G        C   F                     G        C
He picked me up and he threw me down Sayin', "please don't hurt me mama"

go to chorus, then F C G C F C G C, to ending

ENDING:
F     C    G   C    F    C    G      C       F    C    G   C    F     C
Poor poor poor me, poor poor pitiful me     Poor poor poor me, poor poor 
    G    C     N.C.
pitiful me   Poor poor poor me, poor poor pitiful me



Here's the guitar solo as best as I could figure it out,  try a little 

fuzz with some delay; and or compression with phase.    p = pause

-------------------------------------------------12--------13--12---------
------------------------------------------13--15----15--13-------15--13-p-
--14--12---------------------------12--14---------------------------------
---------14--12--10--12--14--10--p----------------------------------------
--------------------------------------------------------------------------
--------------------------------------------------------------------------


--13--12--13--12-(slide)-15-(ring)--13--12--13--12------------------------
---------------------------------------------------13--12--13--p----------
--------------------------------------------------------------------------
--------------------------------------------------------------------------
--------------------------------------------------------------------------
--------------------------------------------------------------------------


--------------------------------------------------------------------------
-----------------15--13---------------------------------------------------
--12-(slide)-14----------14--12-p--14--12--14--12-------------------------
---------------------------------------------------14--15--14-------------
--------------------------------------------------------------------------
--------------------------------------------------------------------------



Comments about this tab

No comments/corrections found. Add your own



2006 ZMG, Inc. - All Rights Reserved - Privacy Statement