Tab Country Home


 :: Home > Tabs > J > Jackson, Alan > Don't Rock the Jukebox

Alan Jackson - Don't Rock the Jukebox


This tab has been rated a 5.00 out of 5 for accuracy.
(1 vote)
Sorry, but you must be logged in to rate this tab so we can tell which songs you've already voted on, which will help prevent cheating.
Click here to log-in, or you can click here to register.
(Registration is free)


Click here for a plain text version of this song (for better printing)

Add this tab to your list of favorite tabs




#----------------------------------PLEASE NOTE---------------------------------#
#This file is the author's own work and represents their interpretation of the #
#song. You may only use this file for private study, scholarship, or research. #
#------------------------------------------------------------------------------#


Don't Rock the Jukebox (Guitar Solo) by Alan Jackson
From the cd: Don't Rock the Jukebox
Transcribed by: Stuart Tysinger
 
Here is a great solo probably done by Brent Mason in the Key of (G), enjoy!  Sometimes tab gets shifted so listen to the cd for the timing & bends.
 
E|-------------------------------------6----------------------------------3----
B|----------------^---15-----^----^---------8-----^----8-------^--^----6-----6-
G|----------12-14----------14-14-12-----------7------------7-7/5---------------
D|--12-14----------------------------------------------------------------------
A|-----------------------------------------------------------------------------
E|-----------------------------------------------------------------------------
 
                  (1/4 bend on the 3)
E |------------------------------------------------------------------------------
B|---^--^----^------------------------------------^----15----12-----^---^------
G|---5-5----3------------------------------12-14------------------10-10--------
D|------------------5--------12---14---------------------------------------12--
A|-----------------------------------------------------------------------------
E|-----------------------------------------------------------------------------
 
E|--------------3------------------------------------------------------------
B|---^-----------------------------------------------------------------------
G|---5-------------------6/5---3---------3-----------------------------------
D|------------------------------------5---------5-3-2-----3-2-0----------0---
A|------------------------------------------------------------------1-2------
E|---------------------------------------------------------------------------



Comments about this tab

No comments/corrections found. Add your own



2006 ZMG, Inc. - All Rights Reserved - Privacy Statement