Tab Country Home


 :: Home > Tabs > C > Cash, Johnny > Ghost Riders In the Sky

Johnny Cash - Ghost Riders In the Sky


This tab has been rated a 4.00 out of 5 for accuracy.
(6 votes)
Sorry, but you must be logged in to rate this tab so we can tell which songs you've already voted on, which will help prevent cheating.
Click here to log-in, or you can click here to register.
(Registration is free)


Click here for a plain text version of this song (for better printing)

Add this tab to your list of favorite tabs




#----------------------------------PLEASE NOTE---------------------------------#
#This file is the author's own work and represents their interpretation of the #
#song. You may only use this file for private study, scholarship, or research. #
#------------------------------------------------------------------------------#


Artist: Johnny Cash
Song: Ghost riders in the sky
Composed: Mr. Grace Jr. & Stephen PH.
Submitted: Stephen PH
 
Hey tis is just my second tab so if there are any mistakes please post 'em.
You'll have to figure out where the words go your self.
 
              
------------------------------------------------------------
------------------------------------------------------------
------------------------------------------------------2-2-2-
----------------------------------------------2-2-2-2-------
--0-0-0-2-3-3-3-0------------0-0-0-2-3-3-3-3-3--------------
-0---------------3-3-3-0-3-0--------------------------------


------------------------------------------------
------------------------------------------------
-0-2-0------------------------------------------
--------2-2-2-----------------------------------
---------------3-0----------3-3-3-3-3-3-0-0--0--
--------------------1-1-1-1-------------------3-



Comments about this tab

center63 - 2004-12-31
This part is right but there is more to the song. try adding "Am Am Am C" for the yippie oooo.

Add a comment/correction



2006 ZMG, Inc. - All Rights Reserved - Privacy Statement