Tab Country Home


 :: Home > Tabs > C > Chesney, Kenny > I Lost It

Kenny Chesney - I Lost It


This tab has not yet been rated for accuracy.Sorry, but you must be logged in to rate this tab so we can tell which songs you've already voted on, which will help prevent cheating.
Click here to log-in, or you can click here to register.
(Registration is free)


Click here for a plain text version of this song (for better printing)

Add this tab to your list of favorite tabs




#----------------------------------PLEASE NOTE---------------------------------#
#This file is the author's own work and represents their interpretation of the #
#song. You may only use this file for private study, scholarship, or research. #
#------------------------------------------------------------------------------#


I Lost It (Guitar Solo) by Kenny Chesney
From the CD: Greatest Hits
Transcribed by Stuart Tysinger
Key of (Eb)
 
Here is a great solo from a great song by Kenny Chesney.  Like Kenny, I am
from East Tennessee as well.  I also attended classes at ETSU like he did.
So, this is transcribed without using a capo in standard tuning.
 
|--------------------------------------------------------------(4x)------(1/2)(1/2)Bends----
|--(These are all slides)--------/-----------------------^-----------^--^-------------------
|-----/---/----/---/----/-/-13-15-15-17-15-17-17-19-19-17-15-15-15--------------------------
|-13-15-13-15-13-15-13------------------------------------------------------17-15-13--------
|-------------------------------------------------------------------------------------16-18-
|-------------------------------------------------------------------------------------------
 
|-----------------------------
|----------(3x)----(1/2)Bend--
|-----------^--------^--------
|-19-21-21-19-21--------------
|-----------------------------
|-----------------------------
 
Kenny Rules please enjoy!



Comments about this tab

No comments/corrections found. Add your own



2006 ZMG, Inc. - All Rights Reserved - Privacy Statement