Tab Country Home


 :: Home > Tabs > B > Brooks, Garth > Long Neck Bottle

Garth Brooks - Long Neck Bottle


This tab has not yet been rated for accuracy.Sorry, but you must be logged in to rate this tab so we can tell which songs you've already voted on, which will help prevent cheating.
Click here to log-in, or you can click here to register.
(Registration is free)


Click here for a plain text version of this song (for better printing)

Add this tab to your list of favorite tabs




#----------------------------------PLEASE NOTE---------------------------------#
#This file is the author's own work and represents their interpretation of the #
#song. You may only use this file for private study, scholarship, or research. #
#------------------------------------------------------------------------------#


Long Neck Bottle -- Garth Brooks
Written By:  Steve Wariner & Rick Carnes
Key Of "D"

Nashville Numbers:

CHORUS:

1 4 1 1
4 4 1 1
4 4 1 4
1 5 1 1^7

VERSE:

4 4 1 1
2 2 5,/ ,/

[Chorus]

Solo w/ scat (thank God and guitars for Steve Wariner):

"P" = Pause and let the note ring -- just listen to the song, you'll know
what I'm talkin' about.  :)

    Start Scat
      P   P
E -----7--10--8-----------------------------------------------
B -10------------10--8------7------------------------------7--
G ----------------------10-----9--7-----7--------7--9--10-----
D -----------------------------------9-----7--9---------------
A ------------------------------------------------------------
E ------------------------------------------------------------

 P
E ------------------------------------------------------------
B -10------7------------------------------7-----------7-------
G -----10-----9--7-----7--------7--9--10-----9--7--------9--7-
D ------------------9-----7--9---------------------9----------
A ------------------------------------------------------------
E ------------------------------------------------------------

 P      P P        P
E ------------------------------------------------------------
B ----------------10--8--7--------------8--8------------------
G ----7--------7------------9--7-----7------------------------
D -9-----7--9---------------------9---------------------------
A ------------------------------------------------------------
E ------------------------------------------------------------

[Verse]

[Chorus]

TAG:

4 4#dim 1 4
1 5 1 1

Sorry, I haven't quite figured out the ending guitar solo yet.  :}

===============

CHORUS:

Long neck bottle... let go of my hand
Hey jukebox don't start playing that song again
Cause there's a girl at home who loves me... you know she won't understand
Long neck bottle... let go of my hand

VERSE1:

Hey bar room mirror on the wall, go stare at someone else
Don't show the world the fool I am... just keep it to yourself

[Chorus]

VERSE2:

Now dance floor, it seems you're underneath my feet everywhere I turn
I oughta waltz right out that swinging door but that's a step I just can't
learn.

[Chorus]

TAG:

Cause there's a girl at home who loves me you know she won't understand
Long neck bottle let go of my hand.

===============

Well, enjoy, and if you figure out more of it, or if you find an error that
I made, lemme know.  :)  I'm always open to commentary and correction.  :)

Later,
~~James Michael Randorff  (jrandorff@aol.com, liiamccann@aol.com,
dixichicks@aol.com)



Comments about this tab

No comments/corrections found. Add your own



2006 ZMG, Inc. - All Rights Reserved - Privacy Statement