Tab Country Home


 :: Home > Tabs > C > Carpenter, Mary Chapin > You Win Again

Mary Chapin Carpenter - You Win Again


This tab has not yet been rated for accuracy.Sorry, but you must be logged in to rate this tab so we can tell which songs you've already voted on, which will help prevent cheating.
Click here to log-in, or you can click here to register.
(Registration is free)


Click here for a plain text version of this song (for better printing)

Add this tab to your list of favorite tabs




#----------------------------------PLEASE NOTE---------------------------------#
#This file is the author's own work and represents their interpretation of the #
#song. You may only use this file for private study, scholarship, or research. #
#------------------------------------------------------------------------------#


You win again
By:  Mary Chapin Carpenter


I see this song is already in the archive, but it's missing those really
cool solos!  Back when I was still taking guitar lessons my teacher,
Chris Jackson, figured this out and it's so much fun to play once you
get the hang of it.  Hope you enjoy!

Special Notes:
1)  When I tab something like 9(10), that means to bend the string so
that it sounds as though you're playing in the tenth fret on that string
2)  When I show a 9(10)(9), the (9) means to bend the string back down
to it's original position, but not to pick the note
3)  And one thing I'm not sure exactly on how to best show on here is
when you bend up 9(10) and then you want to pick that note while it's
still bent, and for my purposes I use an * to show that.  If you have
any better ideas, let me know.


First Solo:

--------------------------------------------------------------7------------
-------------------------------------8-10--------------------7-10p7-10(10)-
-7-7-7---9p7-9(10)(9)p7-9(10)*10(9)p7----9(10)(9)-7p-7--9(10)--------------
----9--9-------------------------------------------------------------------
---------------------------------------------------------------------------
---------------------------------------------------------------------------


-10p9-7------------10-12-12(13)*13(12)-12-10-17(18)(17)-15h17p15-14-15-17p14-15
-------10-------/12------------------------------------------------------------
---------9/12-11---------------------------------------------------------------
-------------------------------------------------------------------------------
-------------------------------------------------------------------------------
-------------------------------------------------------------------------------


Second Solo:

------10-10-12(13)*13(12)-9-10--12-10-12(13)(12)-10h12p10-9-10---------------
-10h12--------------------------------------------------------12-------------
----------------------------------------------------------------11-9---------
--------------------------------------------------------------------11-12-12-
-----------------------------------------------------------------------------
-----------------------------------------------------------------------------


|---------------------------------------------------------------------------
|-12---------------------------------14(14
1/2)(14)-12----12----------------
|-14(15)(14)----14(15)-14(15)(14)----------------------14----14h16p14-12-11-
|------------12-------------------12----------------------------------------
|---------------------------------------------------------------------------
|---------------------------------------------------------------------------


|-----------------------------------------------------------------------------
|-----------------------------------------------------------------------------
|-9----9------7----7---9(10)(9)-7-9(10)(9)-7---7p6----------7-9p7-------7---9-
|---11---12-----/9---9-----------------------9-----9p7----9-------9p7h9---9---
|-----------5------------------------------------------10---------------------
|-----------------------------------------------------------------------------


|---------7------------------------------10-12-9h12p9---------10-10-
|-------7---7-10(11)-10(11)*11(10)-8-/12--------------10--/12-------
|-9(10)-------------------------------------------------------------
|-------------------------------------------------------------------
|-------------------------------------------------------------------
|-------------------------------------------------------------------


|---------------17-17--------17-17--------17-17--------17-17--------17-17-
|-17p15--17(18)-------17(18)-------17(18)-------17(18)-------17(18)-------
|-------------------------------------------------------------------------
|-------------------------------------------------------------------------
|-------------------------------------------------------------------------
|-------------------------------------------------------------------------


|---------------------------------------------------------
|-*18(17)-15------15-15-----15-15-----15-15-----15-15-----
|------------16---------16\-------16\-------16\-------16\-
|---------------------------------------------------------
|---------------------------------------------------------
|---------------------------------------------------------


|--------------------------------------------------------------------------
|---------------------------------------------10-12p10---------------------
|-14(15)(14)-9-11-12p11-14p11-9p7-----7h9-/11----------11-9h11-9p7---7-7---
|---------------------------------7h9------------------------------9-----9-
|--------------------------------------------------------------------------
|--------------------------------------------------------------------------


|-----------------------------------------------
|-10----------------------10-8-7----------------
|-9(10)*10(9)-7---7-9---7--------7--------------
|---------------9-----9------------7------------
|------------------------------------9(10)(9)-7-
|-----------------------------------------------

						Jason A. Wendtland



Comments about this tab

No comments/corrections found. Add your own



2006 ZMG, Inc. - All Rights Reserved - Privacy Statement