Tab Country Home


 :: Home > Tabs > B > Byrd, Tracy > Ten Rounds Of Jose Quervo

Tracy Byrd - Ten Rounds Of Jose Quervo


This tab has been rated a 0.00 out of 5 for accuracy.
(1 vote)
Sorry, but you must be logged in to rate this tab so we can tell which songs you've already voted on, which will help prevent cheating.
Click here to log-in, or you can click here to register.
(Registration is free)


Click here for a plain text version of this song (for better printing)

Add this tab to your list of favorite tabs




#----------------------------------PLEASE NOTE---------------------------------#
#This file is the author's own work and represents their interpretation of the #
#song. You may only use this file for private study, scholarship, or research. #
#------------------------------------------------------------------------------#


Tracy Byrd
Ten Rounds With Jose Quervo
Tabbed by Rick Wood

Intro
Play second part for solo

e------------------------------------------------------------------------------
b------------------------------------------------------------------------------
g------------------------------------------------------------------------------
d------0----2/4--0--------------0h2--------0-------2/4--0----2p0-----2^^^------
a--0h2----------------0-2-2-----------0h2--------------------------2-----------
E------------------------------------------------------------------------------

e------------------------------------------------------------------------------
b------------------------------------------------------------------------------
g------------------------------------------------------------------------------
d---------0-------2/4---0-------------0h2--------0-----2/4--0----2b4r2-------0-
a---0h2---------------------0-2-2-----------0h2--------------------------2-----
E------------------------------------------------------------------------------



Comments about this tab

No comments/corrections found. Add your own



2006 ZMG, Inc. - All Rights Reserved - Privacy Statement