Tab Country Home


 :: Home > Tabs > B > Byrd, Tracy > Just Let Me Be In Love

Tracy Byrd - Just Let Me Be In Love


This tab has not yet been rated for accuracy.Sorry, but you must be logged in to rate this tab so we can tell which songs you've already voted on, which will help prevent cheating.
Click here to log-in, or you can click here to register.
(Registration is free)


Click here for a plain text version of this song (for better printing)

Add this tab to your list of favorite tabs




#----------------------------------PLEASE NOTE---------------------------------#
#This file is the author's own work and represents their interpretation of the #
#song. You may only use this file for private study, scholarship, or research. #
#------------------------------------------------------------------------------#


Songtitle: Just Let Me Be In Love (Track 2)
Artist:  Tracy Byrd
Album:  Ten Rounds
Year:  2001

Chords by:  Raylan Williams
Tabbed by:  Armand Eglauer

In going through the chords that Raylan put together, I added a few small
changes on the last line of the verses and corrected one error in the lyrics
in the first verse.  

After painstaking efforts (literally!), I was able to come up with the tab
for the solos, or at least what I believe to be pretty accurate.  I tried to
keep some spaces between the tabbed notes, but when they are played so 
quickly, I figured those efforts were futile.  Contact me with any errors or
corrections to the work.

Listen to the song for timing of the solos; they are best played with a 2nd
guitar while the first strums the chords shown.  Everything (chords and tab)
is relative to the capo.  Enjoy!  (By the way, I have played the solos along
with the song at the same timing, but only once!)

Capo 3rd fret

Chords:
     Am   Em    F  Esus   E    C   E7   Bb   Dm 
E |---x----0----1----0----0----0----0----1----x---|
A |---0----2----3----2----2----3----2----1----x---|
D |---2----2----3----2----2----2----0----3----0---|
G |---2----0----2----2----1----0----1----3----2---|
B |---1----0----1----0----0----1----0----3----3---|
e |---0----0----1----0----0----0----0----1----1---|


Intro: 
     Am            Em  F           Esus    E       Am
E |------------------|----------------------------x---|
A |------------------|----------------------------0---|
D |------------------|----------------------------2---|
G |------------------|---------------------1-2----2---|
B |------------------|-6-6-5-5-3-3-------------0--1---|
e |--5-7-8-8-7-7-8-0-|-5-5-3-3-1-1-0-0-1-0--------0---|


Verse 1:
[Am]My breath is short my heart is [Em]beating fast
[F]Every time I smile at her, she's [Esus]smiling back [E]
[Am]If I'm dreaming, please just [Em]let me sleep
[F]Anyone can see that she's too [Esus]good for me [E]
Oh, [C]give her time, she'll find out soon enough
[Esus]Just let me [E]have and [E7]hold her 'til she [E]does


Chorus:
   [Am]What we've got [Em]going on is [F]so incredi-[E]ble
   [Am]This chemis-[Em]try between us [F]feels so wonder-[E]ful
   But [Am]knowing me I'll [Em]probably
   [Bb]Find a [C]way to mess it [F]up
   Who [Dm]knows, who [C]cares, right [F]now
   Just [E]let me be in [Am]love


Solo 1:
    Am                Em      F             Esus    Em    
E|-------------------------|-----------------------------|
A|-------------------------|-----------------------------|
D|-------------------------|-----------------------------|
G|-------------------------|----------------4-5-5--1-2---|
B|-------------------------|-6---5---3------3-5-6------0-|
e|-0-5-7-8-8-7-7-8-0-0-0-0-|---5---3---1-0---------------|


Verse 2:
[Am]Don't concern me with re-[Em]ality
[F]Don't convince me she's too [Esus]heavenly [E]
[Am]Forget the future disre-[Em]gard the past
[F]Those are questions I don't [Esus]wanna ask [E]
Oh, [C]to my heart all that matters is tonight
[Esus]Just let me [E]live this [E7]moment in her [E]eyes


Repeat Chorus


Solo 2:
    Am    Em                  F                  Esus              Em
E|---------------------------------------------------------------------|
A|---------------------------------------------------------------------|
D|---------------------------------------------------------------------|
G|-----------------------------------------------------2---2-1-2-------|
B|---------------------------------------3-3-1-1-0h1p0---0-------0-1-3-|
e|-0-3-5-5---5-7-8-7-5-0-0-0-0-3-1-1-0-0-------------------------------|

    Am                     Em           F                Esus    Em
E|-----------------------------------------------------------------------|
A|-----------------------------------------------------------------------|
D|-------------------------------------------------------------2-2-3-----|
G|----------------------------------------------2------2-1-2---------0-2-|
B|-----------3----------------------------3-1301-013310------0-----------|
e|-0-5-7-8-----7-0-5-5-7-8-10-8-7-5--31301-0-----------------------------|


  Repeat Chorus
  Who [Dm]knows, who [C]cares, right [F]now
  Just [E]let me be in [Am]love


Instrumental: Am Em F Esus E  (Repeat chords to fade)



Comments about this tab

No comments/corrections found. Add your own



2006 ZMG, Inc. - All Rights Reserved - Privacy Statement