Tab Country Home


 :: Home > Tabs > B > Brooks, Garth > Shameless

Garth Brooks - Shameless


This tab has not yet been rated for accuracy.Sorry, but you must be logged in to rate this tab so we can tell which songs you've already voted on, which will help prevent cheating.
Click here to log-in, or you can click here to register.
(Registration is free)


Click here for a plain text version of this song (for better printing)

Add this tab to your list of favorite tabs




#----------------------------------PLEASE NOTE---------------------------------#
#This file is the author's own work and represents their interpretation of the #
#song. You may only use this file for private study, scholarship, or research. #
#------------------------------------------------------------------------------#


Shameless
Garth Brooks

This is a letter about "Shameless" you put out on the internet.
I know it was like a million years ago, but oh well.  I think you did a
great job.  It seemed difficult through a few key changes, but you did a
good job.

You only forgot one part, which I'm just now getting around to send.  It's
the best I could do because I didn't want to spend forever working on it:

Solo:
                                                       |Slight whammy|
e:--------------10----11-b-12-12p10----------------------------8-6-|
B:-10p8-10-b-12----12---------------12p10p8-10-8-------------8---6-|
G:-----------------------------------------------9-7-9-----9-------|
D:-----------------------------------------------------7-9---------|
A:-----------------------------------------------------------------|
E:-----------------------------------------------------------------|

e:-------------------------------------------------------------------|
B:-----8-10.5b12-10.5b12-10.5b12-10b12r10-8-7-8-10-------------------|
G:-7-9---------------------------------------------9-14-12-11~~-11s4-|
D:-------------------------------------------------------------------|
A:-------------------------------------------------------------------|
E:-------------------------------------------------------------------|

e:----------------------------------------------------------|
B:---------------------15--------------------12b13-11~~s3-x-|
G:-9s11-11s12-12s14b16----14b16r14-12------9----------------|
D:------------------------------------9s10------------------|
A:----------------------------------------------------------|
E:----------------------------------------------------------|

Daniel



Comments about this tab

No comments/corrections found. Add your own



2006 ZMG, Inc. - All Rights Reserved - Privacy Statement