Tab Country Home


 :: Home > Tabs > S > SHeDAISY > Come Home Soon

SHeDAISY - Come Home Soon


This tab has not yet been rated for accuracy.Sorry, but you must be logged in to rate this tab so we can tell which songs you've already voted on, which will help prevent cheating.
Click here to log-in, or you can click here to register.
(Registration is free)


Click here for a plain text version of this song (for better printing)

Add this tab to your list of favorite tabs




#----------------------------------PLEASE NOTE---------------------------------#
#This file is the author's own work and represents their interpretation of the #
#song. You may only use this file for private study, scholarship, or research. #
#------------------------------------------------------------------------------#


Artist: SHeDAISY
Song:   Come Home Soon (Intro)
Album:  Sweet Right Here
Year:   2004

Capo on 3rd Fret

 G               D/F#            Em7             Cadd9
---------------|---------------|---------------|---------------
-----3---------|-----3---------|-------3-----3-|-------3-----3-
-------0---0-2-|-------2---2-0-|-----0-----0---|-----0-----0---
---0-----0-----|---0-----0-----|---2-----2-----|---2-----2-----
---------------|---------------|---------------|-3-------------
-3-------------|-2-------------|-0-------------|---------------

 G         D/F#      Em7       Cadd9     G
---------|---------|---------|---------|-----------------
-----3---|-----3---|-----3---|-----3---|-----3-----------
-------0-|-------2-|-------0-|-------0-|-------0---0/2\0-
---0-----|---0-----|---2-----|---2-----|---0-----0-------
---------|---------|---------|-3-------|-----------------
-3-------|-2-------|-0-------|---------|-3---------------

 G
-------------
-------3-3---
-----0-----0-
---0---------
-------------
-3-----------



Comments about this tab

No comments/corrections found. Add your own



2006 ZMG, Inc. - All Rights Reserved - Privacy Statement