Tab Country Home


 :: Home > Tabs > C > Cash, Johnny > Hurt

Johnny Cash - Hurt


This tab has been rated a 5.00 out of 5 for accuracy.
(3 votes)
Sorry, but you must be logged in to rate this tab so we can tell which songs you've already voted on, which will help prevent cheating.
Click here to log-in, or you can click here to register.
(Registration is free)


Click here for a plain text version of this song (for better printing)

Add this tab to your list of favorite tabs




#----------------------------------PLEASE NOTE---------------------------------#
#This file is the author's own work and represents their interpretation of the #
#song. You may only use this file for private study, scholarship, or research. #
#------------------------------------------------------------------------------#


Hurt - Johnny Cash
Tabbed by Patrick Dempsey (lorcan00@hotmail.com)

I know that there are a lot of Hurt tabs out there, but none of them were the 
way I play it, so I decided to put my two cents in. 


This is the main part

Am          C             ?(slide up from C)   Am

-------0-----------0--------------0-------------------0----
-------1-----------1--------------3-------------------1----
-------2-----------0--------------0-------------------2----
----2-----------2--------------4-------------------2-------
-0-----------3--------------5-------------------0----------
-----------------------------------------------------------


Then the Chorus is

 C    F    C    G
-0-  -1-  -0-  -3-
-1-  -1-  -1-  -3-
-0-  -2-  -0-  -0-
-2-  -3-  -2-  -0-
-3-  -3-  -3-  -2-
-0-  -1-  -0-  -3-

C     C     C      C    F    F   F   F  C   C    C   C
 
What have   I      Be--come                 My  Sweetest 


G         G     G     G

Friend?



Comments about this tab

Six_effin_Strings - 2006-04-12
ive been looking high and low for the right tabs 4 this song. and i gotta say thank u, u NAILED it. these are the ones, thanks
nitotom - 2006-05-22
I think your unknown chord there doesn't fit. WHy don't you just try playing D. I think it works nicely.
longarm - 2008-02-10
chorus starts on Am then you have all of it

Add a comment/correction



2006 ZMG, Inc. - All Rights Reserved - Privacy Statement