Tab Country Home


 :: Home > Tabs > J > Jackson, Alan > Remember Me

Alan Jackson - Remember Me


This tab has not yet been rated for accuracy.Sorry, but you must be logged in to rate this tab so we can tell which songs you've already voted on, which will help prevent cheating.
Click here to log-in, or you can click here to register.
(Registration is free)


Click here for a plain text version of this song (for better printing)

Add this tab to your list of favorite tabs




#----------------------------------PLEASE NOTE---------------------------------#
#This file is the author's own work and represents their interpretation of the #
#song. You may only use this file for private study, scholarship, or research. #
#------------------------------------------------------------------------------#


Remember Me
Alan Jackson

This is my first country tab because I hardly listen to country but this song
great so I to made a tab of it.  Itís very close to it but the notes changes
here and there.  Play it with the song to understand the note (it can get 
kinda confusing if you donít). If you guys donít agree with some of the notes
plz comment it so we can all learn from my mistake's lol


Intro tabs


----11/12---------15-14-15----------------0-----12----14-
----------------------------------12---------------------
--------------------------------------12-----------------
---------------------------------------------------------
---------------------------------------------------------
---------------------------------------------------------


----14/15-----15-15-14-12--------------15-14-15----------
-------------------------------15-15---------------------
---------------------------------------------------------
---------------------------------------------------------
---------------------------------------------------------
---------------------------------------------------------



-------------------------15-15-14-14h15-15-15--14-12--
------12----------------------------------------------
---------12-------------------------------------------
------------12--14------------------------------------
------------------------------------------------------
------------------------------------------------------


-------------------------------
---15-----12-13----12h13p12----
----------------------------12-
-------------------------------
-------------------------------
-------------------------------


Intro chords


     G                Em           C             D
------------3------------------------------------------2---
---------3----3-------------------------------------3----3-
----------------------------0------------0-------2---------
-------------------------2-----2------2-----2--------------
----------------------2------------3-----------------------
-----3-----------------------------------------------------



then later on in the song it changes to

   A              F#m          D                E
-------------------------------------2---------------------
---------2------------------------3-----3------------------
------2-----2------------------2----------------------1----
---2------------------4----------------------------2-----2-
--------------------4----4----------------------2----------
------------------2----------------------------------------


Its good to get all the chords to know when to change. Theres more chords
but you can kinda get the idea what to do.

well thatís my tab donít forget to rate and comment this tab =)



Comments about this tab

No comments/corrections found. Add your own



2006 ZMG, Inc. - All Rights Reserved - Privacy Statement