Tab Country Home


 :: Home > Tabs > U > Urban, Keith > Somebody Like You

Keith Urban - Somebody Like You


This tab has not yet been rated for accuracy.Sorry, but you must be logged in to rate this tab so we can tell which songs you've already voted on, which will help prevent cheating.
Click here to log-in, or you can click here to register.
(Registration is free)


Click here for a plain text version of this song (for better printing)

Add this tab to your list of favorite tabs




#----------------------------------PLEASE NOTE---------------------------------#
#This file is the author's own work and represents their interpretation of the #
#song. You may only use this file for private study, scholarship, or research. #
#------------------------------------------------------------------------------#


“Somebody Like You”
Artist: Keith Urban
Transcribed: Justin Hurley (Hurley007@hotmail.com)

INTRO:

E------------------------------------------------------------------
B------------------------------------------------------------------
G---8/9/11/13/14--------------------------------------------------- X4
D------------------------------------------------------------------ 
A---6/7/9/11/12----------------------------------------------------
E------------------------------------------------------------------

Verse 1:

Emaj
There's a new wind blowing like I've never known.

I'm breathing deeper then I've ever done.
         Asus2						Emaj
And it sure feels good to finally feel the way I do.
            Bsus2	           Asus2      Emaj (Intro riff.)
I wanna love somebody, love somebody like you.

Verse 2:

Emaj
And I'm letting go of all my lonely yesterdays.

I've forgivin' myself for the mistakes I've made.
     Asus2				Emaj (Intro riff.)
Now there's just one thing, the only thing I wanna do. mmmmhmmm...
Bsus2		Asus2			Emaj (Intro riff.)
I wanna love somebody, love somebody like you.
 			
Chorus:

                         Asus2				      Emaj (Riff. 1*)
Yeahhhh! I wanna feel the sun shine, shining down on me and you.
 		Asus2						C#m7	F#m (Riff. 2*)
When you put your arms around me, you let me know there's nothing in this world I can't doooo...

Verse 3:

Emaj
I used to run in circles going nowhere fast.

I'd take one step forward end up two steps back.
 	Asus2				    Emaj (Intro riff.)
Couldn't walk a straight line, even if I wanted to. mmmmhmmm...
 	Bsus2		Asus2		Emaj (Intro riff.)
I wanna love somebody, love somebody like you.

Solo 1:

***Same chord progression as verses***

E----7-----7-----------------------------
B----7b8---7b8---5p7p5---7p5-------------
G----------------------6-----------------	X2
D----------------------------------------
A----------------------------------------
E--------------------------------9s0-----

E—12\11\9\7\5\4\2\0--------------------------------------------------------------------
B--0--0--0-0-0-0-0-0------------------------------------------------------2s12---------
G---------------------------------------------------------------------2s12-------9b11--
D------------------------4b---4b---4p2---------------------------2s12------------------
A---------------------------------------4---------4b—4b-4b—4p2-------------------------
E--------------------------------------------------------------------------------------

E---12-----------14------
B---15b17----------------
G------------------------
D------------------------
A------------------------
E------------------------


Chorus

Verse 4: 

Emaj					
Sometimes its hard for me to understand, but your teaching me to be a better man.
        Asus2				Emaj
I dont wanna take this life for granted like I used to do. no no...
Bsus2			Asus2		Emaj
I wanna love somebody, love somebody like you.
 	Bsus2			Asus2
I'm ready to love somebody, love somebody like you. mmmm...

I wanna love somebody, love somebody like you... yeah.ha ha!


Solo 2:

E--------12-12-----------14-14---------16-16--------17--16--14-------14--------------
B---5s10-----------7s12----------9s14----------------------------17-------17--14--17-
G------------------------------------------------------------------------------------
D------------------------------------------------------------------------------------
A------------------------------------------------------------------------------------
E------------------------------------------------------------------------------------

E-------15b17r15--12v---let-ring---
B----------------------------------
G----------------------------------
D----------------------------------
A----------------------------------
E----------------------------------


Hey ..I wanna love ya baby! WOOO!! uh huh.. yeah....

Riff 1*

E------------------
B------------------
G---13\11\9--------
D------------------
A---11\9\7---------
E------------------

Riff 2*

E--2----------------
B----2--------------
G—------4b6r4-------
D-------------------
A-------------------
E-------------------



Comments about this tab

No comments/corrections found. Add your own



2006 ZMG, Inc. - All Rights Reserved - Privacy Statement