Tab Country Home


 :: Home > Tabs > J > Jackson, Alan > She Likes It Too

Alan Jackson - She Likes It Too


This tab has not yet been rated for accuracy.Sorry, but you must be logged in to rate this tab so we can tell which songs you've already voted on, which will help prevent cheating.
Click here to log-in, or you can click here to register.
(Registration is free)


Click here for a plain text version of this song (for better printing)

Add this tab to your list of favorite tabs




#----------------------------------PLEASE NOTE---------------------------------#
#This file is the author's own work and represents their interpretation of the #
#song. You may only use this file for private study, scholarship, or research. #
#------------------------------------------------------------------------------#


She Likes It Too
Alan Jackson

b - bend
pbr - prebend/release
r - release

    Intro
E---|-----------------------------------|------------------------------|---
B---|-----------------------------------|------------------------------|---
G---|-----------------------------------|------------------------------|---
D---|---------2-------0-----------------|----2-------0-----------------|---
A---|------------2h4-----4--2--0--------|-------2h4-----4--2--0--------|---
E---|--2b--0----------------------2--0--|------------------------2--0--|---

E                                A         E
I got my first motorcycle when I turned sixteen
                            B         E
I remember my mamma raisin' cane with me
                                             A
She said son tell me why you wanna ride that thing
           E                            B     E
she didn't know about the blonde at the Dairy Queen

  A
I got my own reasons why I do what I do
          E                    B            E
I like to ride motorcycles and she likes it too
                               B            E
I like to ride motorcycles and she likes it too


I always wore my hair just a little too long
and daddy didn't like and he made no bones
and if I'd gotten it cut like he wanted me to
she wouldn't have had nothin' left to run her fingers through

I got my own reasons why I do what I do
I like to wear my hair long and she likes it too
I like to wear my hair long and she likes it too

*Guitar Lead*

E---|------------------------------9------------------------------------|---
B---|------------------------5--8-----8---------------------------------|---
G---|-----------------2--4b--------------7pbr--6--5--6--4b--4b--4b--4r--|---
D---|--------------4----------------------------------------------------|---
A---|--2b--0--4h7-------------------------------------------------------|---
E---|-------------------------------------------------------------------|---

*Steel Solo after guitar*

I remember ridin' 'round with my buddies back home
listenin' to some country on the radio
and when they tried to change the station to some rock and roll
I'd turn the Opry up just as loud as it would go

I got my own reasons why I do what I do
well, I like country music, she likes it too
yeah, I like country music, she likes it too
      B                       A            E
Now I got a big Harley and my hair's still long
    B                        A       B
and I'm still listenin' to a country song

I got my own reasons why I do what I do
I know what I like, she likes it too
I know what I like, she likes it too
yeah, I know what I like, she likes it too



Comments about this tab

No comments/corrections found. Add your own



2006 ZMG, Inc. - All Rights Reserved - Privacy Statement