Tab Country Home


 :: Home > Tabs > U > Urban, Keith > Desiree

Keith Urban - Desiree


This tab has been rated a 5.00 out of 5 for accuracy.
(1 vote)
Sorry, but you must be logged in to rate this tab so we can tell which songs you've already voted on, which will help prevent cheating.
Click here to log-in, or you can click here to register.
(Registration is free)


Click here for a plain text version of this song (for better printing)

Add this tab to your list of favorite tabs




#----------------------------------PLEASE NOTE---------------------------------#
#This file is the author's own work and represents their interpretation of the #
#song. You may only use this file for private study, scholarship, or research. #
#------------------------------------------------------------------------------#


Desiree
Keith Urban

G     =   320003                                     C(add9)     =   x32030
D     =   xx0232                                     Em          =   022000
C     =   x32010                                     Dsus        =   xx0233
Am7   =   x02010                                     G/B         =   x20003

*****************************************************************************

G  C(add9)  G  C(add9)
INTRO


     G                                C(add9) 
It's killin' me to write the word goodbye,
     G                               C(add9)
I've wadded up and tossed a thousand tries.
G        
We both know the reason,
            C(add9)
There ain't nothing to explain.
    G  
But I know that my leavin'
     C                 D
Will spare us both the pain.


     Em           C            Dsus    D 
(Desiree) I can't hold you any longer.
     Em                C               Dsus  D
(Desiree) You love his money more than me.
        G             Am7
And the taxi's at the gate,
        G/B                C
I guess all that's left to say
      G                C             Dsus  
Is in teardrops at the bottom of the page
   D               C(add9)
'I love you Desiree'.


G  C(add9)  G  C(add9)
INSTRUMENTAL


        G                         C(add9)
It'd be easier to leave if I were mad,
         G                                 C(add9)
But it's hard to lose the best you'll ever have.
       G 
And to write this note to you,
        C(add9)
Was the hardest thing to do.
           G
But not as hard as bein' a poor boy
            C                D
Who can't afford a girl like you


     Em           C            Dsus    D 
(Desiree) I can't hold you any longer.
     Em                C               Dsus  D
(Desiree) You love his money more than me.
        G             Am7
And the taxi's at the gate,
        G/B                C
I guess all that's left to say
      G                C             Dsus  
Is in teardrops at the bottom of the page
       D            Em
God, I love you Desiree,
            C            Dsus   D
But I can't hold you any longer.
     Em                C               Dsus  D
(Desiree) You love his money more than me.
        G             Am7
And the taxi's at the gate,
        G/B                C
I guess all that's left to say
      G                C             Dsus  
Is in teardrops at the bottom of the page
  D               C(add9)  D  C(add9)
I love you Desiree.
                      G  C(add9)  G  C(add9)
God, I love you Desiree.

I just can't take anymore.
G                              C(add9)
I won't be around for your goodbye.
G                              C(add9) 
I won't be around for your goodbye.
                             G
You love his money more than me.
                               C(add9)
I won't be around for your goodbye.
                             G
You love his money more than me.
                               
I won't be around for your goodbye
       C(add9)                               G
Oh you love his money, you love it more than me.
                              C(add9)
I won't be around for your goodbye.
                                  G
I was just a fool who couldn't see.
                              
I won't be around for your goodbye.
         C(add9)                               G
That you love his money, you love it more than me.

G  C(add9) (x8)
INSTRUMENTAL


*****************************************************************************************

/   =   slide up                                              p   =   pulloff
h   =   hammer-on                                             \   =   slide down
br  =   bend & release                                        >   =   swell note
~   =   vibrato                                               b   =   bend
x   =   dead note                                             

*****************************************************************************

INTRO
E------------------------------------------------|
B-----3-3-3--------------------3-3-3-------------|
G--2/4-----5p4-2h4\---------2/4-----5p4-2-0------|
D------------------2-----------------------5/7---|
A------------------------------------------------|
E------------------------------------------------|

1ST INSTRUMENTAL
                                            >
E----------------------------------------------------------------|
B-----3-3-3--------------------3-3-3-------------------0---------|
G--2/4-----5p4-2-4\---------2/4-----5p4-2p0-2br~~-0-2/4-\2-0-0---|
D------------------2---------------------------------------------|
A----------------------------------------------------------------|
E----------------------------------------------------------------|

2ND INSTRUMENTAL

E-------10-10--10h12-10-----------------------------------------------------
B--10/12-----12----------12-15-15br-15/17-----------------------------------
G----------------------------------------14/16\14--12h14-14\11-11-11\7-7-7--
D---------------------------------------------------------------------------
A---------------------------------------------------------------------------
E---------------------------------------------------------------------------

E-----------------------------------------12----------12----------12----------12------
B---------3--3---5---8---10---12---13---12--15p12---12--15p12---12--15p12---12--15p12-
G--2/4-4h5-5b-/7b-10b-12b--14b--15b--14b---------14b---------14b---------14b----------
D-------------------------------------------------------------------------------------
A-------------------------------------------------------------------------------------
E-------------------------------------------------------------------------------------

E-------12----------12----------12---------12----------12----------12----------12------
B-----12--15p12---12--15p12---12--15p2---12--15p12---12--15p12---12--15p12---12--15p12-
G--14b---------14b---------14b--------14b---------14b---------14b---------14b----------
D--------------------------------------------------------------------------------------
A--------------------------------------------------------------------------------------
E--------------------------------------------------------------------------------------

E-------12--------------------------------------------------------------------------
B-----12--15p12---12---12---12---12-13-15-13b~~~~~-12-12\---------12-12h13-12\10-10-
G--14b---------14b--14b--14b--14b---------------------12\-10/12-14------------------
D-----------------------------------------------------------------------------------
A-----------------------------------------------------------------------------------
E-----------------------------------------------------------------------------------

E---------------15-x-15-15-15--------------------------------14br-14-14\12-12-12---------
B--10br-8~~~8\--15-x-15-15-15----------12-12b-12-10-10--------------------------15-15-15-
G---------------16-x-16-16-16--10/12-14---------------12-12-0----------------------------
D----------------------------------------------------------------------------------------
A----------------------------------------------------------------------------------------
E----------------------------------------------------------------------------------------

E------------------------------------------------------------------------------------|
B--13-12b-12-12\--------12-12b-12-10-10-12\---------------12-13-12-10-----13b~~~~~---|
G---------------10/12-14-------------------7/9----10/12-14-----------14-12-----------|
D------------------------------------------------------------------------------------|
A------------------------------------------------------------------------------------|
E------------------------------------------------------------------------------------|



Comments about this tab

No comments/corrections found. Add your own



2006 ZMG, Inc. - All Rights Reserved - Privacy Statement