Tab Country Home


 :: Home > Tabs > U > Urban, Keith > Making Memories of Us

Keith Urban - Making Memories of Us


This tab has been rated a 3.22 out of 5 for accuracy.
(9 votes)
Sorry, but you must be logged in to rate this tab so we can tell which songs you've already voted on, which will help prevent cheating.
Click here to log-in, or you can click here to register.
(Registration is free)


Click here for a plain text version of this song (for better printing)

Add this tab to your list of favorite tabs




#----------------------------------PLEASE NOTE---------------------------------#
#This file is the author's own work and represents their interpretation of the #
#song. You may only use this file for private study, scholarship, or research. #
#------------------------------------------------------------------------------#


Making Memories of Us - Keith Urban

^ = bend
h = hammer down
/ = slide
p = pull off
* = harmonic
~ = vibrato

Intro

E [------------------------------------------------
B [-------4--------------4------------------------
G [--4h6---6p4/2--4h6----6p4/2--1~-2/4/2------
D [------------------------------------------------     x2
A [------------------------------------------------
E [------------------------------------------------

Verse
    E         B      G#m       A        E     B
E [-----0--------2-------4--------0--------0------2----
B [------0--0-----2--2----4--4-----2--2-----0-0----2-2-
G [----1--1-----3--3-------4-----2---2----1--1---3--3--
D [---2--------3--------5-------2--------2------3------
A [--2--------2--------5-------0--------2------2-------
E [-------------------4--------------------------------
             G#m             A
E [---------4------------------------------
B [---------4----4---2--------------------
G [---------4----4---2------4-2p0---2---
D [-----5---5----4---2-----2------2-----
A [----5----5-------------0----------------
E [---4-----4-------------------------------

Chorus
     A( Im)    E(love you)   A(nobody)  E(loves you)
E [------------------------------------------
B [---2---------0-------------2-----------0--
G [---2---------1-------------2-----------1--
D [---2---------2-------------2-----------2--
A [---0---------2-------------0-----------2--
E [------------------------------------------
        
   A(I'll)C#m(trust) B(memories) E(us)
E [------------------2----------------2----------------
B [--2-----2---------2-----------0---------------------
G [--2-----1---------3-----------1-------2h4p2------2--
D [--2-----2---------3-----------2---4----------4-2----
A [--0-----0---------2-----------2--0------------------
E [----------------------------------------------------

Bridge
   G#m7 (we'll)   E(rainbow)    A(wherever)    E(blow)
E [---0-----------------------------------------------
B [---0------------0---------------2------------0-----
G [---4------------1---------------2------------1-----
D [---4------------2---------------2------------2-----
A [---x------------2---------------0------------2-----
E [---4-----------------------------------------------

   G#m7(and) C#m(new day) A(coming) Bsus4(your) B (way)
E [---0--------------------------------0---------2---
B [---0-------2-----------2------------0---------2---
G [---4-------1-----------2------------4---------3---
D [---4-------2-----------2------------4---------3---
A [---x-------0-----------0------------2---------2---
E [---4----------------------------------------------



Comments about this tab

splitingimage - 2005-08-12
horrible, the intro should be played on the d and g strings, the picking patterns are off but you did get the chords right except for the 2nd line of the verse

Add a comment/correction



2006 ZMG, Inc. - All Rights Reserved - Privacy Statement