Tab Country Home


 :: Home > Tabs > B > Brooks & Dunn > Red Dirt Road

Brooks & Dunn - Red Dirt Road


This tab has not yet been rated for accuracy.Sorry, but you must be logged in to rate this tab so we can tell which songs you've already voted on, which will help prevent cheating.
Click here to log-in, or you can click here to register.
(Registration is free)


Click here for a plain text version of this song (for better printing)

Add this tab to your list of favorite tabs




#----------------------------------PLEASE NOTE---------------------------------#
#This file is the author's own work and represents their interpretation of the #
#song. You may only use this file for private study, scholarship, or research. #
#------------------------------------------------------------------------------#


Red Dirt Road - Brooks and Dunn
submitted by Jimbo Peterson

This is the tab to red dirt road I don't know if this is 100% right but this
is my first time to put tab on the internet.

chords These are played at the beginning and throughout the song each chord is
played more than I showed you have to find the beat yourself and strum it.

  
e------------------------------------------------------------
b------------------------------------------------------------
g--10----10-----7-----8--------------------------------------
D--10----10-----7-----8--------------------------------------
a--8-----7------5-----6--------------------------------------
E------------------------------------------------------------


After first chorus you need a slide and probably some distortion

e------------------------------------------------------------
b--12/15\12v---9/11\9/7v-------------------------------------
g------------------------------------------------------------
d------------------------------------------------------------
a------------------------------------------------------------
E------------------------------------------------------------

After second chorus and end of song with a slide and probably distortion

e-----------------------------------------------------7/9999/12121212/141414/16
b-12/15\12v--9/11\9/7v--11/12\11/9--9/11\9/7v-12/15\12v------------------
g-------------------------------------------------------------------------
d-------------------------------------------------------------------------
a-------------------------------------------------------------------------
E-------------------------------------------------------------------------



Comments about this tab

No comments/corrections found. Add your own



2006 ZMG, Inc. - All Rights Reserved - Privacy Statement