Tab Country Home


 :: Home > Tabs > W > Warren Brothers > Change

Warren Brothers - Change


This tab has been rated a 4.00 out of 5 for accuracy.
(1 vote)
Sorry, but you must be logged in to rate this tab so we can tell which songs you've already voted on, which will help prevent cheating.
Click here to log-in, or you can click here to register.
(Registration is free)


Click here for a plain text version of this song (for better printing)

Add this tab to your list of favorite tabs




#----------------------------------PLEASE NOTE---------------------------------#
#This file is the author's own work and represents their interpretation of the #
#song. You may only use this file for private study, scholarship, or research. #
#------------------------------------------------------------------------------#


Change - The Warren Brothers
submitted by Guitar38R

Intro
Mandolin starts then electric comes in with

-------------------------------------------------------
-15h17-17-15---15h17-17-15---15h17-15--14-15-14-12-----
-------------------------------------------------------
-------------------------------------------------------
-------------------------------------------------------
-------------------------------------------------------

[E] [G] [D] [A] 2x

This is how i play the singing part cause it sounds better 
when you dont have all the instruments. But he actually hits the
First 2 Chords E and G and he finishes the verse with no electric.
I Change the strum while doing the verse though.


[E]Went to see a [G]shrink 
[D]cause my life is such a [A]mess
[E]thanks Mr Frued[G]
[D]now I'm broke and [A]depressed
[E]I had to start smoking [G]to get off Nicorette
I [D/let ring]put the top down just in time to get wet [A]2x

one of these [E]days [G]my [D] luck is gonna [A]change
[E]they'll think I'm [G]brillant [D]instead of in[A]sane

[E]eveything will be [G]different
[D]but I'll be the [A]same
[G/let ring]one of these days[A/let ring] my luck is gonna change

[E] [G] [D] [A] 2x

(These are the same as the first verse and chorus)

bought a new shirt as it was going out of style
stood up a blind date
it was Nicki Dial
bought a massage so i could relax
big male massuse almost broke my back

one of these days my luck is gonna change
they'll think I'm brillant instead of insane
eveything will be different
but I'll be the same
one of these days my luck is gonna change

SOLO

---------15---------------------------------------15----------------
--15s17-----17----12s15---12---15--12------15s17------17------------
--------------------------------------------------------------------
--------------------------------------------------------------------
--------------------------------------------------------------------
--------------------------------------------------------------------

---------------------------18b-------17b----------------------------
--15--15--15---12b------16b------15b-------14b-----12h15p12---------
--14--12--14---12b------------------------------------------14b-----
--------------------------------------------------------------------
--------------------------------------------------------------------
--------------------------------------------------------------------

--------------------------------------------------------12--15--15b-----
------------------------------------------------12--15------------------
--12h14p12-----------------------------12--14---------------------------
-----------14------------------12--14-----------------------------------
------------------------12--14------------------------------------------
----------------12--15--------------------------------------------------

stand in line pass the time
live and learn wait my turn [A] 2x

one of these days my luck is gonna change
they'll think I'm brillant instead of insane
eveything will be different
but I'll be the same
one of these days 
one of these days my luck is gonna change
they'll think I'm brillant instead of insane
eveything will be different
but I'll be the same
one of these days my luck is gonna change



ahh could you spare alittle....change
[E/let ring]    [E/let ring] 
not sure what this chord is i know its a G but i forget whats its called =/

-3--------17--19p17------
-3-----------------------
-0-----------------------
-0-----------------------
-2-----------------------
-3-----------------------



Comments about this tab

No comments/corrections found. Add your own



2006 ZMG, Inc. - All Rights Reserved - Privacy Statement