Tab Country Home


 :: Home > Tabs > P > Presley, Elvis > Polk Salad Annie Intro

Elvis Presley - Polk Salad Annie Intro


This tab has not yet been rated for accuracy.Sorry, but you must be logged in to rate this tab so we can tell which songs you've already voted on, which will help prevent cheating.
Click here to log-in, or you can click here to register.
(Registration is free)


Click here for a plain text version of this song (for better printing)

Add this tab to your list of favorite tabs




#----------------------------------PLEASE NOTE---------------------------------#
#This file is the author's own work and represents their interpretation of the #
#song. You may only use this file for private study, scholarship, or research. #
#------------------------------------------------------------------------------#


Intro for Polk Salad Annie - Elvis Presley

Tabbed by JerseyRock!!!  ENJOY!!!

pretty simple sounds awesome  :-)



I play the Open E chord as Below

   E
E|----------||
B|----------||
G|-1--------||
D|-2--------||
A|-2--------||
E|----------||


Then I use my Pinky to Hammer On the B STRING as Below

   E            
E|---------------------||
B|-0----0--ho2--ho3----||
G|-1----1----1----1----||
D|-2----2----2----2----||
A|-2----2----2----2----||
E|---------------------||




Then I Reverse it with Pull Offs


                  E            
E|---------------------||
B|-3po--2po--0----0----||
G|-1----1----1----1----||
D|-2----2----2----2----||
A|-2----2----2----2----||
E|---------------------||



ho = Hammer On's

po = Pull Off's



Comments about this tab

No comments/corrections found. Add your own



2006 ZMG, Inc. - All Rights Reserved - Privacy Statement