Tab Country Home


 :: Home > Tabs > B > Bentley, Dierks > Come A Little Closer

Dierks Bentley - Come A Little Closer


This tab has been rated a 3.43 out of 5 for accuracy.
(7 votes)
Sorry, but you must be logged in to rate this tab so we can tell which songs you've already voted on, which will help prevent cheating.
Click here to log-in, or you can click here to register.
(Registration is free)


Click here for a plain text version of this song (for better printing)

Add this tab to your list of favorite tabs




#----------------------------------PLEASE NOTE---------------------------------#
#This file is the author's own work and represents their interpretation of the #
#song. You may only use this file for private study, scholarship, or research. #
#------------------------------------------------------------------------------#


SONG: Come A Little Closer
ARTIST: Dierks Bentley
TAB: RACECAR13


G:320003
C:x32013(sounds best)
C:x32033(easier but play G as 320033 if you play this way)
D:xx0232

INTRO
e-----------------------------------------|
B-13--13--10--11--11--10----10------------|
G--12--12---9--10--10---10~---10-12-------|
D------------------------------------12~--|
A-----------------------------------------|
E-----------------------------------------|


 G                   C                            G
Come a little closer baby, I feel like laying you down
 G                   C                                G
On a bed of sweet surrender, where we can work it all out
D                                   C                                    
There ainít nothing that love canít fix, 
D                           C
girl itís right here at our fingertips
 G                      C                            G
So come a little closer baby, I feel like laying you down

G                    C                         G
Come a little closer baby, I feel like letting go
G                            C                                G
Of everything that stands between us, and the love we used to know
D                       C           D                             
I wanna touch you like a cleansin' rain
                            C
and let it wash all the hurt away
G                       C                         G
So come a little closer baby, I feel like letting go
C                                                             G
If there's still a chance, then take my hand and we'll steal away
C                                             Em                  A
Up into the night, to make things right, the suns gonna rise on a better day


SOLO


e-----------------------------------------------
B-13--13--10--11--11--10----10------------------
G--12--12---9--10--10---10~---10----------------
D------------------------------------12~--------
A-----------------------------------------------
E-----------------------------------------------

e-----------------------------------------------
B-13--13--10--11--11--10---------10ó12~---------
G--12--12---9--10--10---10~-10h12~------8/10-12~
D-----------------------------------------------
A-----------------------------------------------
E-----------------------------------------------

G                    C                              G
Come a little closer baby, I feel like stripping it down
G                     C                                       G 
Back to the basics of you and me, and what makes the world go round
D                C                D                                  
Every inch of you against my skin, I wanna be stronger than weíve ever 
C
been
G                C                              G
So come a little closer, I feel like stripin it down
G                    C                       G
Come a little closer baby, just a little bit closer
G                    C                           G
Come a little closer baby, I feel like layin you down


OUTRO
e-----------------------------------------------
B-13--13--10--11--11--10----10------------------
G--12--12---9--10--10---10~---10----------------
D------------------------------------12~--------
A-----------------------------------------------
E-----------------------------------------------

e-----------------------------------------------
B-13--13--10--11--11--10---------10ó12~---------
G--12--12---9--10--10---10~-10h12~------8/10-12~
D-----------------------------------------------
A-----------------------------------------------
E-----------------------------------------------



Comments about this tab

No comments/corrections found. Add your own



2006 ZMG, Inc. - All Rights Reserved - Privacy Statement