Tab Country Home


 :: Home > Tabs > U > Urban, Keith > Where the Blacktop Ends

Keith Urban - Where the Blacktop Ends


This tab has not yet been rated for accuracy.Sorry, but you must be logged in to rate this tab so we can tell which songs you've already voted on, which will help prevent cheating.
Click here to log-in, or you can click here to register.
(Registration is free)


Click here for a plain text version of this song (for better printing)

Add this tab to your list of favorite tabs




#----------------------------------PLEASE NOTE---------------------------------#
#This file is the author's own work and represents their interpretation of the #
#song. You may only use this file for private study, scholarship, or research. #
#------------------------------------------------------------------------------#


Where the Blacktop Ends
Keith Urban

Intro Tab
  
If you have any question's or any country songs
you want tab for you can  reach me at 
jason_scott16@hotmail.com

-----00------00-------------------------p-p------------------------
-4/5----4/5------^7  7---5-3--23  5--532---------------------
----------------------------------------------5  2-p----------------
--------------------------------------------------2  0-p---p---------
------------------------------------------------------3 0 3  0-----
-------------------------------------------------------------------

-----00-------00------------------------p-p-------------------------
-4/5-----4/5-----^7  7---5 3--23  5--532-----------------------
----------------------------------------------5--2-------------------
---------------------------------------------------5-4--2------------
---------------------------------------------------------5-3--4------
---------------------------------------------------------------5-----



Comments about this tab

No comments/corrections found. Add your own



2006 ZMG, Inc. - All Rights Reserved - Privacy Statement