Tab Country Home


 :: Home > Tabs > T > Twain, Shania > That Don't Impress Me Much

Shania Twain - That Don't Impress Me Much


This tab has not yet been rated for accuracy.Sorry, but you must be logged in to rate this tab so we can tell which songs you've already voted on, which will help prevent cheating.
Click here to log-in, or you can click here to register.
(Registration is free)


Click here for a plain text version of this song (for better printing)

Add this tab to your list of favorite tabs




#----------------------------------PLEASE NOTE---------------------------------#
#This file is the author's own work and represents their interpretation of the #
#song. You may only use this file for private study, scholarship, or research. #
#------------------------------------------------------------------------------#


"THAT DON'T IMPRESS ME MUCH"
Performed by: Shania Twain
Written by:  Twain/Lang
CD: COME ON OVER
Copyright 1997 Mercury Records

I believe the song is actually performed in Bbm, but since I don't own a
capo, I simply tuned my guitar up one half step.  If you choose to use
one, these same chord 'shapes' apply but all of the single-note stuff
(leads) must be adjusted accordingly (one fret higher).  

Drums and               Intro:
                          Am     F  C        G      Am    F  C        G
                          //    //  //       //     //    // //       //
------------------------|-------------------------|----------------------------
--10--8-10--8-10--8-10--|-------------------------|----------------------------
------------------------|-------------------------|-------------------(2)------
------------------------|--------3--2----------2--|--------3--2--------2-------
------------------------|--3--5--------5--3--5----|--3--5--------5--3------5---
------------------------|-------------------------|----------------------------

(Verse 1)
      Am          F                C                G
I've known a few guys who thought they were pretty smart
      Am              F     C          G             
But you've got being right down to an art
      Am              F               C          G
you think you're a genius - you drive me up the wall
           Am       F         C       G
you're a regular original, a know it all

(Bridge)
D      A        G
Oh-oo-oh, you think you're something special
D      A                     G
Oh-oo-oh, you think you're something else.

Okay, so you're a rocket scientist

(Chorus)
             F         C    G   Am
That don't impress me much
        F        C                G        Am
So you got the brain but have you got the touch
F              C            G              Am
Don't get me wrong, yeah I think you're alright
     F                  C            G            G
But that won't keep me warm in the middle of the night

That don't impress me much

(Repeat intro) 
 
(Verse 2)
   Am           F                  C            G  
I never knew a guy who carried a mirror in his pocket
       Am           F       C       G
And a comb up his sleeve - just in case
               Am        F           C            G
And all that extra hold gel in your hair oughtta lock it
        Am      F               C           G
'Cause heaven forbid it should fall out of place

(Bridge)
D      A        G
Oh-oo-oh, you think you're special
D      A                     G
Oh-oo-oh, you think you're something else

Okay, so you're Brad Pitt

(Chorus)
              F        C    G   Am
That don't impress me much
           F       C                 G        Am
So you've got the looks but have you got the touch
F              C             G            Am
Don't get me wrong, yeah I think you're alright
     F                  C            G            G
But that won't keep me warm in the middle of the night

That don't impress me much


(Chords for guitar solo are the same as the verses)
Am   F   C   G  (4 times)
//  //  //  //

-------------------------------------------------------------------------------
--8/(10)--(10)\8-5-8-----------------------------------------------------------
---------------------/(9)\7--5-4-5-4----------------------------------------5--
-------------------------------------7-----------------------------5-7--5^7----
-----------------------------------------7-5/(7)\5-3------3-5--5-7-------------
------------------------------------------------------3-5----------------------


-------5-5-5-----5--------------8----8---8----8----8-5-------------------------
-------5-5-5-----5-------10----10/--10--10/--10--------8--8-5------------------
-7/(9)--------7/(9)---/9--------------------------------------7--7/(9)-7-5-----
---------------------------------------------------------------------------7---
-------------------------------------------------------------------------------
-------------------------------------------------------------------------------

(Verse #4)
        Am           F                  C         G
You're one of those guys that like to shine his machine
             Am          F                C         G
You make me take off my shoes before you let me get in
Am         F                  C        G
I can't believe you kiss your car at night
Am          F       C              G       
C'mon baby tell me - you must be jokin', right?

(Bridge)

D      A                    G
Oh-oo-oh, you think you're something special
D      A                    G
Oh-oo-oh, you think you're something else

Okay, so you've got a car

(Chorus)
              F        C    G  Am
That don't impress me much
        F        C                 G       Am
So you got the moves but have you got the touch
F              C            G             Am
Don't get me wrong, yeah I think you're alright
     F                  C             G           Am
But that won't keep me warm in the middle of the night
              F        C    G  Am
That don't impress me much
F                  C                G        Am
You think you're cool but have you got the touch
F               C            G            Am
Don't get me wrong, yeah I think you're alright
      F                 C           G            
But that won't keep me warm on the long, cold, lonely night

That don't impress me much

(repeat intro)

Okay, so what do you think you're Elvis or something...

Whatever

That don't impress me much

 Am     F    C        G      Am    F    C        G         (Ends on a G)
  /  /  //   / /      //      / /   //  / /      / /
---------------------------|------------------------------|-------------------
---------------------------|------------------------------|-------------------
---------------------------|--------------------(2)-------|-------------------
--------3----2----------2--|---------3--2--------2--------|-------------------
--3--5----------5--3--5----|--3--5---------5--3------5----|-------------------
---------------------------|------------------------------|-------------------

*Solo notes

/ = bend to note in ( )  \ = release  ^ = hammer

When in Montreal, be sure to check out Station 77 for the best in live
country music as performed by BLACK CANYON!  I am in no way affiliated
with either the bar or the band in question, but offer the information
solely for entertainment purposes.



Comments about this tab

No comments/corrections found. Add your own



2006 ZMG, Inc. - All Rights Reserved - Privacy Statement