Tab Country Home


 :: Home > Tabs > P > Paisley, Brad > Little Moments

Brad Paisley - Little Moments


This tab has been rated a 4.33 out of 5 for accuracy.
(3 votes)
Sorry, but you must be logged in to rate this tab so we can tell which songs you've already voted on, which will help prevent cheating.
Click here to log-in, or you can click here to register.
(Registration is free)


Click here for a plain text version of this song (for better printing)

Add this tab to your list of favorite tabs




#----------------------------------PLEASE NOTE---------------------------------#
#This file is the author's own work and represents their interpretation of the #
#song. You may only use this file for private study, scholarship, or research. #
#------------------------------------------------------------------------------#


Title: Little Moments (solo)
Artist: Brad Paisley
Transcriber: Logan Sams
Email:  logansams@hotmail.com

This is the solo from the song "Little Moments" by Brad Paisley.  I have
omitted  the subtleties of the song, such as vibrato, etc and included
only the main structure of the solo.  This one is in A.  If you're fortunate
enough to have one, this sounds awesome through a Dr. Z Mazeratti.  Set
your telecaster to the bridge pickup with a Keeley Compressor in front
and you'll have Paisley dead on.  A great solo from Nashville's best
picker, in my opinion.

Key:
^() : bend to new note in ()
() :  pre-bend to note in ()
r() :   release bend to note in ()
/  :    slide up
\  :   Slide down
h :   hammer on
p :   pull off
Mute  :  palm mute


-----------------------------------------------------------------------------
-----------------------------------------------------------------------------
-----------------------------------------------------------------------------
---------2 / 4---2------2----------------------------------------------------
------------------------4-----/ 4----4----4---4 ^(5) r (5)-----2-------------
---0--0-----------------------------------------------------------------0----


-----------------------------------------------------------------------------
-----------------------------------------------------------------------------
--------------------------------------2-----4-----4 ^ (6)----(6) r (4) p 2---
---------------------------2----4--------------------------------------------
-----------------2---4-------------------------------------------------------
---0---2---4-----------------------------------------------------------------


-----------------------------------------------------------------------
----------5------------------------------------------------------------
-7 ^ (9)-----7 ^ (9)-----/ 9-----7------------7------------------------
--------------------------------------------7------------7-------------
----------------------------------------------------------------9 p 7--
-----------------------------------------------------------------------


--------------------------------------------------------------10----------
-------------------------------------10-----12 ^(14)--(14)--(14) r (12) --
--9 ^ (11) r (9) p 7--9--/ 9--11------------------------------------------
---------------/ 11-------------------------------------------------------
--------------------------------------------------------------------------
--------------------------------------------------------------------------


-----------------------------------------------0------------------------0-
--12--------------12-----------------------------------------12-----------
------11 ^ (13)--------(13) r (11)---9---------/ 13-----------------------
--------------------------------------------------------------------------
--------------------------------------------------------------------------
--------------------------------------------------------------------------


----------------------------------------17---16---------------------------
---------------14----15----17---------------------17^(19)----17-------14--
--14---16-------------------------14------------------------------14------
--------------------------------------------------------------------------
--------------------------------------------------------------------------
--------------------------------------------------------------------------


----------------------------------------------------------------------------
---14 h 15 p 14-------------------------------------------------------------
-----------------16---14---14----------14------------------14---------------
------------------------------14 h 16---14---14-----------14----------------
-------------------------------------------------14 h 16-------16 \ 14 p 12-
----------------------------------------------------------------------------



Comments about this tab

logansams - 2005-01-14
I did this tab, but it has been copied from another site. Somehow it got all screwed up in the process. This tab isn't correct. To see a correct version, visit www.countrytabs.net. We have MANY great Paisley tabs there.
joshward_16 - 2005-08-21
countrytabs.com sucks ass big time.u have to pay or u can only look at 30 tabs every 4 weeks.even thow thay have more tabs this site is better!!!!!
Erin_W - 2005-10-20
It's actually 45 a month...CountryTabs Rocks!

Add a comment/correction



2006 ZMG, Inc. - All Rights Reserved - Privacy Statement