Tab Country Home


 :: Home > Tabs > C > Chesney, Kenny > Me And You

Kenny Chesney - Me And You


This tab has not yet been rated for accuracy.Sorry, but you must be logged in to rate this tab so we can tell which songs you've already voted on, which will help prevent cheating.
Click here to log-in, or you can click here to register.
(Registration is free)


Click here for a plain text version of this song (for better printing)

Add this tab to your list of favorite tabs




#----------------------------------PLEASE NOTE---------------------------------#
#This file is the author's own work and represents their interpretation of the #
#song. You may only use this file for private study, scholarship, or research. #
#------------------------------------------------------------------------------#


KENNY CHESNEY

Album
All I Need To Know

Me And You
By. Skip Ewing & Ray Herndon


1st Verse

G   D/F#   Em            D           C
Ordinary?  No!  I really don't think so,

      G         D
Not a love this true.

G      D/F# Em          Bm       C   D      G
Common destiny, we were meant to be, me and you.

2nd Verse

G      D/F#    Em           D     C
Like a perfect scene from a movie screen,

        G          D
We're a dream come true.

G      D/F#   Em      Bm    C   D      G
Suited perfectly, for eternity, me and you.


CHORUS

C    G           D             G      C
Everyday, well I need you even more,

        G         D
And the nighttime too.

C          G            D            Em   A  Am
There's no way, I could ever let you go.

Am               D
Even if I wanted to.


3rd Verse

G    D/F#  Em               D       C
Everyday I live, (I) try my best to give,

      G       D
All I have to you.

G         D/F#  Em             Bm         C     D      G
Thank the stars above, that we share this love, me and you



GUITAR SOLO ** Here's My Best Shot **
    (It's a lot like "Wonderful Tonight" by Eric Clapton)

Electric Guitar (Clean Tone)

 1/2                                 1/2
|------------------10----------|---------------------|----------------------
|-^(10)-r10p8-10---------8~~~--|---------------12----|----------------------
|------------------------------|----11^-r(11)-------9|-7/9-7--------7h9p7-7-
|------------------------------|---------------------|--------7/9-----------
|------------------------------|---------------------|----------------------
|------------------------------|---------------------|----------------------

 1/2
|-----------------10/12--------|---------------------|----------------------
|-^(10)r-10-p8-10--------8~~~--|-8-9--12--10-10-8-8--|----------------------
|------------------------------|---------------------|-7/9-7----------------
|------------------------------|---------------------|-------9-7-----7------
|------------------------------|---------------------|-----------9-7--------
|------------------------------|---------------------|----------------------


CHORUS:|


Ordinary?  No!  I really don't think so,
Just a precious few. 
Ever make it last, is as lucky as  <-"I think these are the words")
me and you.



CHORDS:
   G   C   D   A   Em   D/F#   Bm   Am

|--3---0---2---0---0----3------2----0----------------
|-(3)--1---3---2---0----3------3----1----------------
|--0---0---2---2---0----2------4----2----------------
|--0---2---0---2---2----0------4----2----------------
|--2---3---X---0---2----0------2----0----------------
|--3---X---X---X---0----2------2----X----------------

=-=-=-=-=-=-=-=-=-=-=-=-=-=-=-=-=-=-=-=-=-=-=-=-=-=-=-=-=-=-=-=-=-=-=-=-=-=-=

Transcribed by Nate Mutti (NMutti@Student.Umass.Edu)

See this song and others on my WEB Site:
               URL:http://www-vms.oit.umass.edu/~nmutti



Comments about this tab

No comments/corrections found. Add your own



2006 ZMG, Inc. - All Rights Reserved - Privacy Statement