Tab Country Home


 :: Home > Tabs > G > Green, Pat > Carry On

Pat Green - Carry On


This tab has not yet been rated for accuracy.Sorry, but you must be logged in to rate this tab so we can tell which songs you've already voted on, which will help prevent cheating.
Click here to log-in, or you can click here to register.
(Registration is free)


Click here for a plain text version of this song (for better printing)

Add this tab to your list of favorite tabs




#----------------------------------PLEASE NOTE---------------------------------#
#This file is the author's own work and represents their interpretation of the #
#song. You may only use this file for private study, scholarship, or research. #
#------------------------------------------------------------------------------#


Carry On
Pat Green

Tuning: Drop "D", i'm not sure how pat's band tunes, but this sounds
pretty good.

this first part is the intor and it repeats after each verse.

  D                     G
e----------------------------------------
B----------------------------------------
G----------------------------------------
D----------------------------------------
A-7--9--10--9--7--9------3/5-------------
d-0--0--0---0--0--0------3/5-------------   4x



the verse is even easier!!
  Em                     D
e----------------------------------------
B----------------------------------------
G----------------------------------------
D----------------------------------------
A-2----------------------0---------------
d-2----------------------0---------------  4x
Baby...               ...city
Billboars...          ...down
Seems...              ...country
Little...             ...down

  G          A           D
e----------------------------------------
B----------------------------------------
G----------------------------------------
D----------------------------------------
A-5-----------7------------0-------------
d-5-----------7------------0-------------
everybody's...gotta.......sometimes

  Em                     D
e----------------------------------------
B----------------------------------------
G----------------------------------------
D----------------------------------------
A-2----------------------0---------------
d-2----------------------0---------------
forget...             ...awile

  G          A           D
e----------------------------------------
B----------------------------------------
G----------------------------------------
D----------------------------------------
A-5-----------7----------0--------------
d-5-----------7----------0--------------
seem...   ...that...   ...need

  D            D/C#        Bm
e----------------------------------------
B----------------------------------------
G----------------------------------------
D----------------------------------------
A12-----------12---------10--------------
d12-----------11---------8---------------
 is a rag top car and a ride with me

  Em                 A
e----------------------------------------
B----------------------------------------
G----------------------------------------
D----------------------------------------
A-2------------------7-------------------
d-2------------------7-------------------
it's...           ...ok
just...           ...tonight
I'm...            ...ok, OH

  D
e--------------
B--------------
G--------------  to intro
D--------------
A-0------------
d-0------------
Carry On...



well here is the first verse but the song repeats this part and is real 
easy to learn.  my band plays this in bars alot and it's a big hit!!

good luck and if you have and questions feel free to email me at 

jacobmccutcheon@mail.com



Comments about this tab

No comments/corrections found. Add your own



2006 ZMG, Inc. - All Rights Reserved - Privacy Statement