Tab Country Home


 :: Home > Tabs > P > Paisley, Brad > Ain't Nothin' Like

Brad Paisley - Ain't Nothin' Like


This tab has not yet been rated for accuracy.Sorry, but you must be logged in to rate this tab so we can tell which songs you've already voted on, which will help prevent cheating.
Click here to log-in, or you can click here to register.
(Registration is free)


Click here for a plain text version of this song (for better printing)

Add this tab to your list of favorite tabs




#----------------------------------PLEASE NOTE---------------------------------#
#This file is the author's own work and represents their interpretation of the #
#song. You may only use this file for private study, scholarship, or research. #
#------------------------------------------------------------------------------#


Ain't Nothin' Like - Brad Paisley


This is the intro tab, the electric riff is found throughout
the song. The hammer-on's go pretty fast, check with the
recording for timing.


h = hammer-on


Acoustic part:

E-----------------------------------------
B-------------1-1-------------------------
G----0----0---2-2-0-------------------0---
D----0h2--------------0h2--0---0---0h2----
A--3--------------3-3--------3---3--------
E-----------------------------------------


E---------------------------------------
B-------1----1--------------------------
G--0-0h2-2---0---------0--------0-------
D-----------------0h2--0----------------
A---------------3-----------0h2---------
E-------------------------3-------------


Electric part: (this riff is also found elsewhere in the song)

E-----------------------------------------
B-----------------------------------------
G--------0---2-2-0---------------------0--
D----0h2-------------0h2--0---0----0h2----
A--3---------------3--------3---3---------
E-----------------------------------------


E-----------------------------------------
B---------1-------------------------------
G--0--0h2---2---0-------------------------
D-------------------0h2--0----------------
A-----------------3-----------2--3--------
E--------------------------3--------------



Comments about this tab

No comments/corrections found. Add your own



2006 ZMG, Inc. - All Rights Reserved - Privacy Statement