Tab Country Home


 :: Home > Tabs > R > Rascal Flatts > These Days

Rascal Flatts - These Days


This tab has not yet been rated for accuracy.Sorry, but you must be logged in to rate this tab so we can tell which songs you've already voted on, which will help prevent cheating.
Click here to log-in, or you can click here to register.
(Registration is free)


Click here for a plain text version of this song (for better printing)

Add this tab to your list of favorite tabs




#----------------------------------PLEASE NOTE---------------------------------#
#This file is the author's own work and represents their interpretation of the #
#song. You may only use this file for private study, scholarship, or research. #
#------------------------------------------------------------------------------#


Title: These Days
Artist: Rascal Flatts
Album: Melt
Song Writers: Steele, Wells, Robson

Standard EADGBe tuning

Tabbed by Aaron Kuefler
This is the only complete copy of this song I can find on the net. During the
solo he may have bent at some parts rather playing up a step. Just listen to
the song and play with it, it sounds right.
Have fun
~Aaron
h - Hammer on
p - Pull off
^w - Bend whole step
^1/2 - Bend half step
/ - Slide up
\ - Slide down
^ - Vibrato

Intro:
G D/F# Em Cadd9
E| ------------|------------|-----------|------------|
B| ------------|------------|-----0-----|-------0----|
G| -----0h2----|-----0h2----|------2----|-----0----2-|
D| ---0------0-|---0------0-|---0-----0-|---2--------|
A| ------------|------------|-----------|-3----------|
E| -3----------|-2----------|-0---------|------------|

First Verse: Start at 0:06
G D/F# Em Cadd9
E| ------------|------------|------------|------------|
B| ------------|------------|----------0-|-------0----|
G| -----0h2----|-----0h2----|-----0h2----|-----0----2-|
D| ---0------0-|---0------0-|---0--------|---2--------|
A| ------------|------------|------------|-3----------|
E| -3----------|-2----------|-0----------|------------|
Play this 5 times

Start at 0:35
Am7 G/B Cadd9 Cadd9 G D/F#
E| ---------0----------------0--x----0-|------------|------------|
B| -------1----------------3----3--3---|----------0-|----------0-|
G| -----0----------------0------0------|-----0h2----|-----0h2----|
D| ---2----------------2--------2------|---0--------|---0--------|
A| -0----------0--2--3----------3------|------------|------------|
E| -----------------------------x------|-3----------|-2----------|
Em Am7 G/B Cadd9
E| -------------0----------------0---------------0--x--|
B| -------------0--------------1---------------3----3--|
G| -----0---0---0-----0------0---------------0------0--|
D| -------4-----2---4------2---------------2--------2--|
A| ---0---------2--------0---------0--2--3----------3--|
E| -0 ----------0-----------------------------------x--|






Chorus: Start at 0:53
I wake up... And then...
D Cadd9 G/B D Cadd9 Em Cadd9 D D
E| --2-2----3-3----x-x----2-2----3-3----0-0---3-2----3-2----2-2--|
B| --3-3----3-3----0-0----3-3----3-3----0-0---3-3----3-3----3-3--|
G| --2-2----0-0----0-0----2-2----0-0----0-0---0-0----2-2----2-2--|
D| --0-0----2-2----0-0----0-0----2-2----2-2---2-2----0-0----0-0--|
A| --x-x----3-3----2-2----x-x----3-3----2-2---3-3----x-x----x-x--|
E| --x-x----x-x----x-x----x-x----x-x----0-0---x-x----x-x----x-x--|
Guess not much...
Cadd9 G D Cadd9 Em Cadd9 D
E| --3-3----3-3----2-2----3-3----0-0----3-3----2-2--|
B| --3-3----3-3----3-3----3-3----0-0----3-3----3-3--|
G| --0-0----0-0----2-2----0-0----0-0----0-0----2-2--|
D| --2-2----0-0----0-0----2-2----2-2----2-2----0-0--|
A| --3-3----2-2----x-x----3-3----2-2----3-3----x-x--|
E| --x-x----3-3----x-x----x-x----0-0----x-x----x-x--|
Go to bed... That's what...
E| --8h10p8h10p8h10p8--5h7p5h7p5h7p5--3h5p3h5p3h5p3--|
B| --------------------------------------------------|
G| --------------------------------------------------|
D| --------------------------------------------------|
A| --------------------------------------------------|
E| --------------------------------------------------|

Second Verse: Starts at 1:22
G D/F# Em Cadd9
E| ------------|------------|-----------|------------|
B| ----------0-|----------0-|-----------|-------0----|
G| -----0h2----|-----0h2----|-----0h2---|-----0----2-|
D| ---0--------|---0--------|---0-------|---2--------|
A| ------------|------------|-----------|-3----------|
E| -3----------|-2----------|-0---------|------------|
Play this 6 times
Well hey... Promise me...
Am7 Cadd9 G D/F# Em Am7 Cadd9
E| --0--------x--x----3----2----0--------0--------x-x-x-|
B| --1--------3--3----3----3----0--------1--------3-3-3-|
G| --0--------0--0----0----2----0--------0--------0-0-0-|
D| --2--------2--2----0----0----2--------2--------2-2-2-|
A| --0--0--2--3--3----2----0----2--------0--0--2--3-3-3-|
E| --x--------x--x----3----2----0--2--0--x--------x-x-x-|

Repeat Chorus: 2:15

First Guitar Solo: Starts at 2:44
E|------------------------------------------------|
B|------------------------------------------------|
G|------7^w-7^^^^---------------------------11-12-|
D|---------------------------------12-14-15-------|
A|-9-10-----------9-10-10/12----------------------|
E|--------------------------12^^^^----------------|


E|-12-10---------------------------------12-15-15-15-15-15^^^^-|
B|------12-12h13p12p10---10-12-13-12-10------------------------|
G|---------------------12--------------12----------------------|
D|-------------------------------------------------------------|
A|-------------------------------------------------------------|
E|-------------------------------------------------------------|

Repeat Chorus: Starts at 2:57
I wake up...
D Cadd9 G/B D Cadd9 Em Cadd9
E| --2-2----3-3----x-x----2-2----3-3----0-0---3-2--|
B| --3-3----3-3----0-0----3-3----3-3----0-0---3-3--|
G| --2-2----0-0----0-0----2-2----0-0----0-0---0-0--|
D| --0-0----2-2----0-0----0-0----2-2----2-2---2-2--|
A| --x-x----3-3----2-2----x-x----3-3----2-2---3-3--|
E| --x-x----x-x----x-x----x-x----x-x----0-0---x-x--|
Guess not much...
To and then... G D Cadd9
E| ------------------------3-3----2-2----3------------------|
B| -14^1/2-14-12-----------3-3----3-3----3---8-8----8-8-----|
G| --------------14^^^^----0-0----2-2----0------7^^----7^^--|
D| ------------------------0-0----0-0----2------------------|
A| ------------------------2-2----x-x----3------------------|
E| ------------------------3-3----x-x----x------------------|
Go to bed...
E| ------------------------|
B| -8-8--------------------|
G| ----7^^--9-9------------|
D| -------------7\5\2^^^^--|
A| ------------------------|
E| ------------------------|

Second Guitar Solo: Starts at 3:29

E| -15-14-12-----------------------------------------|
B| ---------15^^^^^^--12h13h15----------12h14--------|
G| ----------------------------12-12^^^------14^^^^^-|
D| --------------------------------------------------|
A| --------------------------------------------------|
E| --------------------------------------------------|

E| ---------------------------------|
B| ---------------------------------|
G| ---------------9-----------------|
D| -------9-10-12---12-14-12^^^^^^--|
A| -10-12---------------------------|
E| ---------------------------------|

E| ---------------------------------------19-20-22-22-22-22^^^^-|
B| ---------------------------20-22-20-22-----------------------|
G| -16^1/2-16--19-19-21-19-21-----------------------------------|
D| -------------------------------------------------------------|
A| -------------------------------------------------------------|
E| -------------------------------------------------------------|


E| -20p19-20p19----------15h17---17--17--17--17h19p17-|
B| -------------20----15-------15--15--15--15---------|
G| ----------------19---------------------------------|
D| ---------------------------------------------------|
A| ---------------------------------------------------|
E| ---------------------------------------------------|

E| ---17--17--17--17---17h19p17---17--17--17--19-20p17-|
B| -15--15--15--15---15---------15--15--15--15---------|
G| ----------------------------------------------------|
D| ----------------------------------------------------|
A| ----------------------------------------------------|
E| ----------------------------------------------------|

E| ---17--17--17--17---17h19p17----17--17--17-|
B| -15--15--15--15---15----------15--15--15---|
G| -------------------------------------------|
D| -------------------------------------------|
A| -------------------------------------------|
E| -------------------------------------------|

Fade Out



Comments about this tab

No comments/corrections found. Add your own



2006 ZMG, Inc. - All Rights Reserved - Privacy Statement