Tab Country Home


 :: Home > Tabs > R > Rascal Flatts > Like I Am

Rascal Flatts - Like I Am


This tab has been rated a 4.00 out of 5 for accuracy.
(2 votes)
Sorry, but you must be logged in to rate this tab so we can tell which songs you've already voted on, which will help prevent cheating.
Click here to log-in, or you can click here to register.
(Registration is free)


Click here for a plain text version of this song (for better printing)

Add this tab to your list of favorite tabs




#----------------------------------PLEASE NOTE---------------------------------#
#This file is the author's own work and represents their interpretation of the #
#song. You may only use this file for private study, scholarship, or research. #
#------------------------------------------------------------------------------#


Like I Am - Rascal Flatts
Album: Melt
Writers: Joe Don Rooney/Danny Orton

Chords:
A   =   x02220
A/C#=   x42220
Am  =   x02210
Am7 =   x02010
Bb  =   x13331(bar chord) or xx3331
Bm7 =   x24432(bar chord)
Bm7 =   x24232(bar chord)
C   =   x32010
D   =   xx0232
Dm  =   xx0231
Em  =   022000
F   =   133211(bar chord) or xx3211
G   =   320003
G/B =   x20003 or x2003x


*Note*-the chorus consists of different add ons on the C and Am7,
see the tab diagram below if you want to play it the more detailed way.


Intro: Am  G/B  C  Dm7

Am    G/B        C                          F
Lying here with you, I watch you while you sleep
Am          G/B     C                            Dm
The dawn is closing in, with every breath you breathe
Am    G/B        C                               F
I can feel the change, the change you've made in me
Am         G/B   C                      Dm   F  G
But will I ever see, all the things you see in me


Chorus:
C                Am7           F
When you say that I'm one of a kind
     G                   F      G
Baby, I don't see it but you believe
     C                 Am7    Dm  C    F
That I'm so strong and true, I promise you
                            G
I'll try to be that kind of man
            Am      G/B  F    (2nd chorus is Am G/B C)
Because you love me like I am


Am       G/B      C                        F
When it comes to love, I may not know the rules
Am               G/B     C               Dm             F    G
But there's one thing I know, my heart belongs to you, just you


CHORUS


Bb            F
You show me, you love me
Dm      C         F                Bb Am G F
With a fire that burns deep inside


Last chorus: (key change)
D                Bm7           G
When you say that I'm one of a kind
     A                   G      A
Baby, I don't see it but you believe
     D                 Bm7    Em  D    G
That I'm so strong and true, I promise you
                            A
I'll try to be that kind of man
            Bm      A/C#  D
Because you love me like I am

(repeat last chorus)


Detailed chorus chords: (play regular chord and use your pinky to add)

 When you say that I'm one of a kind
E---0---3---0---0----0---3--0--0--1---
B---1---1---3---1----1---1--3--1--1---
G---0---0---0---0----0---0--0--0--2---
D---2---2---2---2----2---2--2--2--3---
A---3---3---3---3----0---0--0--0------
E-------------------------------------

  I'm so strong and true I promise you
E---0---3---0---0-----0---3--1--0----1---
B---1---1---3---1-----1---1--3--1----1---
G---0---0---0---0-----0---0--2--0----2---
D---2---2---2---2-----2---2--0--2----3---
A---3---3---3---3-----0---0--0--3--------
E----------------------------------------


Last chorus: (or capo 2 and play the above chords if you prefer)

 When you say that I'm one of a kind
E---2---5---0---2----2---5--0--2--3---
B---3---3---3---3----3---3--3--3--0---
G---2---2---2---2----2---2--0--2--0---
D---0---0---0---0----4---4--4--4--0---
A--------------------2---2-----2--2---
E---------------------------------3---

  I'm so strong and true I promise you
E---2---5---0---2----2----5--0--2--3---
B---3---3---3---3----3----3--0--3--0---
G---2---2---2---2----2----2--0--2--0---
D---0---0---0---0----4----4--2--0--0---
A--------------------2----2--2-----2---
E----------------------------------3---



Comments about this tab

No comments/corrections found. Add your own



2006 ZMG, Inc. - All Rights Reserved - Privacy Statement