Tab Country Home


 :: Home > Tabs > B > Brooks, Garth > Friends In Low Places

Garth Brooks - Friends In Low Places


This tab has not yet been rated for accuracy.Sorry, but you must be logged in to rate this tab so we can tell which songs you've already voted on, which will help prevent cheating.
Click here to log-in, or you can click here to register.
(Registration is free)


Click here for a plain text version of this song (for better printing)

Add this tab to your list of favorite tabs




#----------------------------------PLEASE NOTE---------------------------------#
#This file is the author's own work and represents their interpretation of the #
#song. You may only use this file for private study, scholarship, or research. #
#------------------------------------------------------------------------------#


Friends in low Places
	by
	Garth Brooks

Okay, I figured people would eventually want the actual tablature
for this, so here it is!  P.S.  Capo the 2nd fret.

Intro

G	    G#0	       Asus2	Am	Dsus2
------------------------------------3---------0h2-----------
--------0---------3-------------1-----------3---------------
------0---------4----------0--------------2-----------------
----0---------3----------2--------------0-------------------
-----------------------0------------------------------------
-3----------4-----------------------------------------------

Verse

G	     G#0	 Am7
----------3-----------4----------------------3--------------
-------0-----------3-----------1---------0h1---1------------
-----0-----------4-----------0---0---------------2----------
---0-----------3-----------2-------2---------------2--------
-------------------------0-------------0--------------------
-3-----------4----------------------------------------------



Dsus2	 	  D7		 G
-------0h2--0-----------2-------------------3--------------3
-----3--------3-------1---1-------------0-----0----------0--
---2----------------2-------2---------0---0-----0-----0-----
-0----------------0-----------0-----0---------------0-------
------------------------------------------------------------
----------------------------------3---------------3---------



G		G#0	      Am7	       Cm7
---------3-----------------4------------0-------------------
-------0---0-----------3-------------1----1--------4---3----
-----0-------0-------4---4---------0--------1-------------5-
---0---------------3-------------2---------------5---5---5--
-------------------------------0---------------3------------
-3---------------4------------------------------------------



D (alternate strumming between bass notes, start w/ down strum)
----2-2---2-2-----2-2----2-2----2-2----2-2------------------
----3-3---3-3-----3-3----3-3----3-3----3-3------------------
----2-2---2-2-----2-2----2-2----2-2----2-2------------------
-0-------------0-------------0--------------0-0-------------
-------0--------------0--------------0----------------------
------------------------------------------------0--2--------
			      (leads into chorus^^^^)

   (use alternate strumming as described above for chorus)
Chorus
G		  Am 		  D
----3-3----3-3------0-0---0-0-------2-2---2-2---------------
----0-0----0-0------1-1---1-1-------3-3---3-3---------------
----0-0----0-0------2-2---2-2-------2-2---3-3---------------
----0-0--0----------2-2---2-2-----0------------0-0----------
------------------0---------------------0-------------------
-3----------------------0--------------------------0-2------
^  four times ^  ^ two times ^

Repeat whole chorus except play the Am part only once.


Solo over Chorus
 full~~~~	   full			   full~~~~~~
------------------------------------------------------------
-5---5555-(5)-2-----------------------------5-55---55-------
----------------4--4^4^--(4)-2--------------4-44(4)24-2-----
------------------------------------------------------------
-------------------------------12s0-----2-2-----------------
------------------------------------2s4---------------------


------------------------------------------------------------
5(7)--5-----------------------------------------------------
--------4(6)-(4)p2--4(6)-4----------------------------------
----------------------------4(5)(4)--2--------------2-------
---------------------------------------2(3)-0-0-2s4---2(3)-0
------------------------------------------------------------

The next verse is with a piano (I think), but you can fill
in the rest from there!!!


Mark W. van Oudheusden



Comments about this tab

No comments/corrections found. Add your own



2006 ZMG, Inc. - All Rights Reserved - Privacy Statement