Tab Country Home


 :: Home > Tabs > P > Paisley, Brad > Wrapped Around

Brad Paisley - Wrapped Around


This tab has been rated a 5.00 out of 5 for accuracy.
(3 votes)
Sorry, but you must be logged in to rate this tab so we can tell which songs you've already voted on, which will help prevent cheating.
Click here to log-in, or you can click here to register.
(Registration is free)


Click here for a plain text version of this song (for better printing)

Add this tab to your list of favorite tabs




#----------------------------------PLEASE NOTE---------------------------------#
#This file is the author's own work and represents their interpretation of the #
#song. You may only use this file for private study, scholarship, or research. #
#------------------------------------------------------------------------------#


WRAPPED AROUND (Brad Paisley / Chris DuBois / Kelley Lovelace)
performed by Brad Paisley on PART II (2001)


 A        D            E                 A
Every day I clock out, and head straight to her house

A            D            E
We cuddle up on the couch, but it always ends up the same old way

     E
I'm driving home and it's incredibly late

 E
Something's got to change



                  D                                  A
Cause I've been wrapped around her finger since the first time we went out

  E                             D            A
Every day and every night she's all I think about

   D                        A                 D
I need that girl beside me when the lights go out

                            A            E                  A    A E
I think it's time to put a ring on the finger I'm wrapped around



 A                D                E                   A
Went to the bank took out a loan, went and bought the perfect stone

 A                D                  E
Called up her dad on the phone, I'm takin' him to dinner Sunday night

      E
I've never been so nervous in my life

E
I want to do this right



                  D                                  A
Cause I've been wrapped around her finger since the first time we went out

  E                             D            A
Every day and every night she's all I think about

   D                        A                 D
I need that girl beside me when the lights go out

                            A            E                  A    A E
I think it's time to put a ring on the finger I'm wrapped around


Solo
|A |D |E |A |A |D |E |E |


 E
Yes sir I love her very much

   E
I know it's only been seven months

 E
But that's long enough



                  D                                  A
Cause I've been wrapped around her finger since the first time we went out

  E                             D            A
Every day and every night she's all I think about

   D                        A                 D
I need that girl beside me when the lights go out

                            A            E                  A
I think it's time to put a ring on the finger I'm wrapped around

D                           A            E                  A
I think it's time to put a ring on the finger I'm wrapped around



TAB (shuffle eighths)

Intro
    ________    ________     ________    ________     ________    ________
   |  |  |  |  |  |  |  |   |  |  |  |  |  |  |  |   |  |  |  |  |  |  |  |
|------------------------|------------------------|------------------------|
|------------------------|------------------------|------------------------|
|------------------------|------------------------|------------------------|
|------------------------|------------------------|------------------------|
|--------0--0--------0--0|------------------------|--------0--0--------0--0|
|--4--5--------4--5------|--2--0--0--0--2--0--0--0|--4--5--------4--5------|
    H           H            B           B            H           H



    ________    ________     ________    ________     ________    ________
   |  |  |  |  |  |  |  |   |  |  |  |  |  |  |  |   |  |  |  |  |  |  |  |
|------------------------|------------------------|------------------------|
|------------------------|------------------------|------------------------|
|------------------------|------------------------|------------------------|
|------------------------|------------------------|------------------------|
|------------------------|--------0--0--------0--0|------------------------|
|--2--0--0--0--2--0--2--0|--4--5--------4--5------|--2--0--0--0--2--0--0--0|
    B           B            H           H            B           B


                                                   Verse
    ________    ________     ________    __          A
   |  |  |  |  |  |  |  |   |  |  |  |  |  |  |      |     |     |     |
|------------------------|-----------------------||------------------------|
|------------------------|-----------------------||------------------------|
|------------------------|-----------------------||*-----------------------|
|------------------------|-----------------------||*-------------2---------|
|--------0--0--------0--0|-----------------0--2--||--0-----4-----------4---|
|--4--5--------4--5------|--2--0--0--0--4------B-||------------------------|
    H           H            B         S



   D                        E                        A
   |     |     |     |      |     |     |     |      |     |     |     |
|------------------------|------------------------|------------------------|
|------------------------|------------------------|------------------------|
|--------------2---------|------------------------|------------------------|
|--0-----4-----------4---|------------------------|--------------2---------|
|------------------------|--------------2---------|--0-----4-----------4---|
|------------------------|--0-----4-----------4---|------------------------|



 
   A                        D            ________    E__    __    ________
   |     |     |     |      |     |     |  |  |  |   |  |  |  |  |  |  |  |
|------------------------|------------------------|------------------------|
|------------------------|------------------------|------------------------|
|------------------------|--------------2---------|------------------------|
|--------------2---------|--0-----4---------------|------------------------|
|--0-----4-----------4---|------------------------|--------4-----5-----4---|
|------------------------|-----------------3--2--0|-----0-----0-----0-----0|




    ________    ________     __    __    ________     ________    ________
   |  |  |  |  |  |  |  |   |  |  |  |  |  |  |  |   |  |  |  |  |  |  |  |
|------------------------|------------------------|------------------------|
|------------------------|------------------------|------------------------|
|------------------------|------------------------|------------------------|
|------------------------|------------------------|------------------------|
|--5-----4-----5---------|--------4-----5-----4---|--5-----4-----5---------|
|-----0-----0-----3--2--0|-----0-----0-----0-----0|-----0-----0-----3--2--0|



                                                   Chorus
    __    __    ________                             D
   |  |  |  |  |  |  |  |   |     |     |     |      |     |     |     |
|------------------------|------------------------|------------------------|
|------------------------|------------------------|------------------------|
|------------------------|------------------------|--------------2---------|
|------------------------|------------------------|--0-----4-----------4---|
|--------4-----5-----4---|------------------------|------------------------|
|-----0-----0-----0-----0|------------------------|------------------------|




                            A
   |     |     |     |      |     |     |     |      |     |     |     |
|------------------------|------------------------|------------------------|
|------------------------|------------------------|------------------------|
|--------------2---------|------------------------|------------------------|
|--0-----4-----------4---|--------------2---------|--------------2---------|
|------------------------|--0-----4-----------4---|--0-----4-----------4---|
|------------------------|------------------------|------------------------|





   E                                                 D
   |     |     |     |      |     |     |     |      |     |     |     |
|------------------------|------------------------|------------------------|
|------------------------|------------------------|------------------------|
|------------------------|------------------------|--------------2---------|
|------------------------|------------------------|--0-----4-----------4---|
|--------------2---------|--------------2---------|------------------------|
|--0-----4-----------4---|--0-----4-----------4---|------------------------|




   A                        D
   |     |     |     |      |     |     |     |      |     |     |     |
|------------------------|------------------------|------------------------|
|------------------------|------------------------|------------------------|
|------------------------|--------------2---------|--------------2---------|
|------------------------|--0-----4-----------4---|--0-----4-----------4---|
|--0-----0-----2-----4---|------------------------|------------------------|
|------------------------|------------------------|------------------------|




   A                        D      __
   |     |     |     |      |     |  |   |     |     |
|------------------------|------------------------|------------------------|
|------------------------|------------------------|------------------------|
|------------------------|---------------2-----4--|--7---------------------|
|------------------------|--0-----3--4------------|------------------------|
|--0-----2-----3-----4---|----------S-------------|------------------------|
|------------------------|------------------------|------------------------|




   A                        E                        A________    ________
   |     |     |     |      |     |     |     |      |  |  |  |  |  |  |  |
|------------------------|------------------------|------------------------|
|------------------------|------------------------|------------------------|
|------------------------|------------------------|------------------------|
|--------------2---------|------------------------|------------------------|
|--0-----4-----------4---|--------------2---------|--------0--0--------0--0|
|------------------------|--0-----4-----------4---|--4--5--------4--5------|
                                                      H           H



   E________    __
   |  |  |  |  |  |  |
|------------------------||
|------------------------||
|-----------------------*||
|-----------------------*||
|-----------------0--2---||
|--2--0--0--0--4------B--||
    B         S




Solo
                __                 __          __                       __
   |     |     |  |  |      |     |  |  |     |  |   |     |     |     |  |
|------------------------|------------------------|------------------------|
|------------------------|------------------------|------------------------|
|------------------------|------------------------|------------------------|
|--7-----------------6---|--6-----4--4-----------0|--7-----6---------------|
|-----------------0------|------------------------|--------------7-----5--4|
|------------------------|------------------------|------------------------|




                __    __     __    __    __   ___     __    __          __
   |     |     |  |  |  |   |  |  |  |  |  | | | |   |  |  |  |  |     |  |
|------------------------|------------------------|------------------------|
|--------------------5--2|--------2--------------2|--3--2-----------------0|
|------------------2-----|------2----2---------2--|-----------2------------|
|-----------------2------|-----2-----------2------|--------------4---------|
|------------------------|-------------------4----|------------------------|
|------------------------|------------------------|------------------------|





   ___   ___   ___   ___     _________   _________   _______   _______
  | | | | | | | | | | | |   |-| |-| |-| |   |-| |-| |-| |-| | |       |
|-5-4-0------------------|-------------------------------------------------|
|-------5----------------|-------------------------------------------------|
|---------4-0------------|--------------2---4-2-0-2-2-0--------------------|
|-------------6-4-2-0----|--------2-3-4------P---H---P--4-2-0--------------|
|----------------S----4-0|--2-3-4--H-H-------------------------------------|
|------------------------|---H-H------------------------------2-------0----|
                                                               B



Comments about this tab

No comments/corrections found. Add your own



2006 ZMG, Inc. - All Rights Reserved - Privacy Statement