Tab Country Home


 :: Home > Tabs > P > Paisley, Brad > Mud On The Tires

Brad Paisley - Mud On The Tires


This tab has been rated a 2.80 out of 5 for accuracy.
(5 votes)
Sorry, but you must be logged in to rate this tab so we can tell which songs you've already voted on, which will help prevent cheating.
Click here to log-in, or you can click here to register.
(Registration is free)


Click here for a plain text version of this song (for better printing)

Add this tab to your list of favorite tabs




#----------------------------------PLEASE NOTE---------------------------------#
#This file is the author's own work and represents their interpretation of the #
#song. You may only use this file for private study, scholarship, or research. #
#------------------------------------------------------------------------------#


Title: Mud on the Tires (solo)
Artist: Brad Paisley
Transcriber: Logan Sams
Email:  logansams@hotmail.com

This is the solo from the song "Mud on the Tires" by Brad Paisley.  I haven't
included all of the subtleties of the solo, such as muted strings between
notes, etc.  There is plenty of "Paisley" feel to this solo that you can't
quite write out even if you tried.  Listen to the album to get the all of
the little nuances.  There is bend Paisley does toward the end of the solo
that requires a G bender to sound just like the album.  I have tabbed it
out to where it sounds pretty close with a standard guitar.  This is in D
and basicly plays over a 1 4 5 chord progression.  A great solo from
Nashville's best picker, in my opinion.

Key:
^() : bend to new note in ()
() :  pre-bend to note in ()
r() :   release bend to note in ()
/  :    slide up
\  :   Slide down
h :   hammer on
p :   pull off
Mute  :  palm mute
Starting from the last time Paisley sings, "Lets get a little
mud on the tires..."

---10--10----10----10-----10----10---10--------------------------------
----8----8------8-----8-------8----8----8------------------------------
-0----------0------------0---------------------------------------------
-----------------------------------------------------------------------
-------------------------------------------5 ^ (7)---(7)-----(7) r (5)-
-----------------------------------------------------------------------


--------------------------------------------------------------0--------
-----------------------------------------------------------------------
-------------------------------------------5 h 6----2^(4)------(4)-----
---------------------------------6/7------5----------------------------
-------------------------/4--7--------0--------------------------------
-/3--3--/3--3--/3---/5-------------------------------------------------
                                               Mute

-----------------------------------------------------------------------
-3-------------------------3--5---3------------------------------------
---(4)--2^(4) r (2)--2--4-----------4\ 2 p 0---0-----------------------
------------------------------------------------4----2 p 0---------0---
-----------------------------------------------------------------4-----
-----------------------------------------------------------------------


-----------------------------------------------------------------------
------------------------------------------------------------7--8 / 10--
-----------------------------------------6 /7------9--7--9-------------
--------------------------5--------7--9--------9-----------------------
--4--2 p 0---------5-7------7 / 9--------------------------------------
------------4 / 7------------------------------------------------------


--7---7 \ 5---5--------------------------------------------------------
-----------------7^(9) r (7)--7---7---7--9----10---10------------------
--------------------------------7---7--7---9-----9----9 ^ (11)---------
--------------------------------5---5--5---7---------------------------
--------------------------------------------------------------9--8--7--
-----------------------------------------------------------------------


-----------------------------------------------------------------------
-8--7--5----5-------------------2--------------------------------------
---------------4 ^ (6) r (4)-------2 ^ (4)------0-----0 h 2 p 0--------
------------------------------4-------------4--------------------------
---------0-------------------------------------------------------------
-----------------------------------------------------------------------
                   Mute

-----------------------------------------------------------------------
-----------------------------------------------------------------------
----------0--0---------------------------------------------------------
-4^ (5)------------0--4 p 2 p 0---------0----0-------------------------
----------------4------------------4^(5)-------------------------------
--------------------------------------------------2-----2 ^ (3)--------


-----------------------------------------------------------------------
-----------------------------------------------------------------------
-----------------------------------------------------------------------
----5-----4-----5-----4------2 h 4 p 2---------------------------------
--------------------------------------------------4------5-------------
-----------------------------------------------------------------------



Comments about this tab

logansams - 2005-01-14
I did this tab, but it has been copied from another site. Somehow it got all screwed up in the process. This tab isn't correct. To see a correct version, visit www.countrytabs.net. We have MANY great Paisley tabs there.

Add a comment/correction



2006 ZMG, Inc. - All Rights Reserved - Privacy Statement